Меню сайта
////

Your Illusion 1 (album) Тип: табулатура


Band- Guns N' Roses
Album- Use Your Illusion I

1.Right Next Door To Hell
2.Dust N' Bones
3.Live And Let Die
4.Don't Cry
5.Perfect Crime
6.You Ain't The First
7.Bad Obsession
8.Back Off B****
9.Double Talkin' Jive
10.November Rain
11.The Garden
12.Garden Of Eden
13.Don't Damn Me
14.Bad Apples
15.Dead Horse
16.Coma

1.RIGHT NEXT DOOR TO HELL

Riff A
E|-----------------|-------------------|-----------------|------------|
B|-----------------|-2^rp0--2^rp0--2p0-|-----------------|-2^rp0--2~~-|
G|-----------------|-2^rp0--2^rp0--2p0-|-----------------|-2^rp0--2~~-|
D|-------2-0-------|-------------------|------2-0--------|------------|
A|-----2-----------|-------------------|-----2-----------|------------|
E|-0-3-------0-3-0-|-------------------|-0-3-------0-3-0-|------------|

Riff A1
E|--------------------------|-------------------------|------------|-------------|
B|--------------------------|-14^2p12--14^2p12--14p12-|------------|-14^r12-14~~-|
G|--------------------------|-14^2p12--14^2p12--14p12-|------------|-14^r12-14~~-|
D|----------------------2-0-|-------------------------|--------2-0-|-------------|
A|--------------------2-----|-------------------------|------2-----|-------------|
E|-12-(12)\--0-0--0-3-------|-------------------------|--0-3-------|-------------|
(end riff A1)
E|--------------------------|------------|-------------|
B|--14^2p12--14^2p12--14p12-|------------|-14^r12-14---|
G|--14^2p12--14^2p12--14p12-|------------|-14^r12-14---|
D|--------------------------|--------2-0-|-------------|
A|--------------------------|------2-----|-------------|
E|--------------------------|--0-3-------|-------------|

[verse 1]
B5 D5 B5 A5 G5
1. i'll take a nicotine cafeine sugar fix jesus don't ya git tired of turning tricks
2. my mama never really said much to me she was much too young and scared ta be

A5 B5 D5 B5 A5
but when your innocence dies you'll find the blues seems all our heroes were
hell "freud" might say that's what i need but all i really ever get is greed

G5 A5 B5 D5 B5
born to lose just walkin' through time you believe this heat another empty house
an most my friends they feel the same hell we don't even have ourselves to blame

A5 G5 A5 B5 D5 B5
another dead end street gonna rest my bones sit for a spell this side of heaven
but times are hard and thrills are cheaper as your arms get shorter your pockets

A5 G5 A5 E5 D5 A5 E5 F#5
this close to hell right next door to hell why don't ya write a letter to me
get deeper right next door to hell why don't ya write a letter to me

D5 A5
i said i'm right next door to hell
i said i'm right next door to hell

E5 F#5 D5 A5 E5 F#5
an so many eyes are on me yeah right next door to hell got nowhere else to be
an so many eyes are on me yeah right next door to hell i never thought this is where i'd be

D5 A5 E5 F#5
right next door to hell feels like the walls are closing in on me.
but i'm right next door to hell thinkin'time'll stand still for me.

[play riff A(2x) then riff A1]

[verse 2]

GUITAR SOLO;
E|-2/----------12-12-------12-12-------12-------12-12-12-12-------12------12-12-12-12-|
B|-2/----------12-12-------12-12-------12-------12-12-12-12-------12------12-12-12-12-|
G|-2/-----14^---------14^---------14^------14^----------------14^-----14^-------------|
D|------------------------------------------------------------------------------------|
A|------------------------------------------------------------------------------------|
E|------------------------------------------------------------------------------------|

E|--------12-12------9-(9)--9-----11----12----11-----9----9-9-9-----11----12----11-----9-|
B|--------12-12------9-(9)--9--9---9--9--9--9--9--9--9----9-9-9--9---9--9--9--9--9--9--9-|
G|-14^-14--------14^-----------------------------------11--------------------------------|
D|---------------------------------------------------------------------------------------|
A|---------------------------------------------------------------------------------------|
E|---------------------------------------------------------------------------------------|

E|------12-12--------12-12-12-------12-12------12-12-12-12----12-12----12-12----12-12----|
B|------12-12--------12-12-12-------12-12------12-12-12-12----12-12----12-12----12-12----|
G|-14^---------14^-------------14^---------14^-------------14^------14^------14^-----14^-|
D|---------------------------------------------------------------------------------------|
A|---------------------------------------------------------------------------------------|
E|---------------------------------------------------------------------------------------|

E|-12-12-------9-(9)--9-----11----12----11-----9-----9-9-9-----11----12----11-----9-9-|
B|-12-12-------9-(9)--9--9---9--9--9--9--9--9--9--9--9-9-9--9---9--9--9--9--9--9--9-9-|
G|-------14\--------------------------------------------------------------------------|
D|------------------------------------------------------------------------------------|
A|------------------------------------------------------------------------------------|
E|------------------------------------------------------------------------------------|
w/riff A(2x)
E|-9\7--7\5--5\4--4\2--4--5--7--(7)----------------------------------------|
B|-9\7--7\5--5\4--4\2--4--5--7--(7)--12~~~~~~~~~~~-5---6---7---(7)--6---7--|
G|-------------------------------------------------7^--8^--9^--(9)--8^--9^-|
D|-------------------------------------------------------------------------|
A|-------------------------------------------------------------------------|
E|-------------------------------------------------------------------------|

outro
G5 A5 E5
E|-------------------------------------------------------------------|
B|--8---------------10-----------------------------------------------|
G|-10^--------------12^--------------7h9-----9-----9-----9-------7h9-|
D|-------------------------------------------------------------------|
A|-------------------------------------------------------------------|
E|-------------------------------------------------------------------|
not bad kids just stupid ones yeah thought we'd own the world an gettin'

G5 A5 E5
E|-------------------------------------------------------------------|
B|-------------------------------------------------------------------|
G|-------------------------------------8---------------10------------|
D|----9-7h9---9---9---9---9---9----9--10^--------------12^-----------|
A|-------------------------------------------------------------------|
E|-------------------------------------------------------------------|
used was havin' fun i said we're not sad kids just lucid ones yeah

E5 G5 A5
E|--------------------------------------------------------------------------|
B|-17---------------17---------17-----------------8---------------------10--|
G|-19^--------------19^--------19^~~~~~~~--------10^--------------------12^-|
D|--------------------------------------------------------------------------|
A|--------------------------------------------------------------------------|
E|--------------------------------------------------------------------------|
flowin' through life not collectin' anyone so much out there still so much

E5 G5
E|-----------------------------------------------------------------------------|
B|-------------------5------------------------------------------------------8--|
G|-------------------7^----------------------------------------------------10^-|
D|-----------------------------------------------------------------------------|
A|-----------------------------------------------------------------------------|
E|-----------------------------------------------------------------------------|
to see time's too much to handle time's too much for me it drives me up the

A5 E5
E|-----------------------------------------------------------------------------------|
B|---------------------------10------17---17--17--17--17---17---17---17---20---(20)^-|
G|---------------------------12^-----19^--19^-19^-19^-19^--19^--19^--19^-------------|
D|-----------------------------------------------------------------------------------|
A|-----------------------------------------------------------------------------------|
E|-----------------------------------------------------------------------------------|
walls it drives me out of my mind can you tell me what this means huh?

Chords used:
B5 = x244xx D5 = x577xx
A5 = x022xx G5 = 355xxx
F#5 = 244xxx G#5 = 466xxx
E5 = x799xx D#5 = x688xx
C#5 = x466xx

2.DUST N' BONES

Intro:
E5 A5 G D/F# E5
He lost his mind today he left it out back on the high - way on sixty five

E|-x\------0-----------3^-0-----0-(0)----------------------------------------------|
B|-x\------0---3^-3^-3-------3^-------0-0-0-0---------0-3----0---------------------|
G|---------------------------------------------2-0-2^-----2-----2^-2-0-2-0---0-----|
D|-------------------------------------------------------------------------2---2-0-|
A|---------------------------------------------------------------------------------|
E|----0----------------------------------------------------------------------------|

1st verse:
E|-----------------------------------------------------------------0-----0----0-----0---------|
B|-----------------------------------------------------------------0--3^--------3^----0-------|
G|-------------------------------------------------------------------------2^-----------2^rp0-|
D|--7^r-5--7-5--5-------7^r-5--7-5-----5-7----7-5---5-----------------------------------------|
A|----------------7----------------5-7------------7------5^--5^-------------------------------|
E|------------------0--------------------------------------------0----------------------------|
she loved him yesterday yesterday's over i said okay that's alright
time moves on that's the way we live an hope to see the next day that's alright

chorus:
D2 D2 D Dsus4 D D2 D2
sometimes these things they are so easy (to Coda)

D2 D2 D Dsus4 D D2 Em
sometimes these things they are so cold

D2 D2 D Dsus4 D D2 C5 C5
sometimes these things just seem to rip you right in two

B5 B5 B5 B5 B5 B5 B5 B5 B5
oh no man don't let 'em get ta you

E|------------|------0------------------------------------------------------|
B|------------|-2------2----------------2-----------------------------------|
G|----------o-|-2^-------r2---2p0-2-x-2-2^--2-0-2-0-2-0--2^--2-0-2-0--------|
D|-4--------o-|------------------------------------------------------2p0----|
A|-2-0--------|-----------------------------------------------------------2-|
E|-----3-2----|-------------------------------------------------------------|

2nd verse:

E|-----------------------------------------------------------------|
B|-----------------------------------------------------------------|
G|-----------------------------------------------------------------|
D|----7^r-5--7-5--5--------7^r-5--7-5-----5-7----7-5---5-----------|
A|------------------7-----------------5-7------------7------5^--5^-|
E|--------------------0--------------------------------------------|
She loved him yesterday he laid her sister she said ok an that's...
buried her things today way back out deep behind the drive way and...

(Coda)
E|---0-----0----0-----0---------|
B|---0--3^--------3^----0-------|
G|-----------2^-----------2^rp0-|
D|------------------------------|
A|------------------------------|
E|-0----------------------------|
alright
that's alright

chorus:
D2 D2 D Dsus4 D D2 D2

sometimes these women are so easy (to Coda)
D2 D2 D Dsus4 D D2 Em

sometimes these women are so cold
D2 D2 D Dsus4 D D2 C5 C5
sometimes these women seem to rip you right in two

B5 B5 B5 B5 B5 B5 B5 B5 B5
only if you let 'em get ta you

bridge:
E * * *

3.LIVE AND LET DIE

INTRO ( Guitar tuned 1/2 down )
* Piano arr. for guitar

(G) (Bm) (C) (D) D(b9)

e-3------------------------------|--0--------------2--------2------\
B-3----3----------------3--------|---------------------3----4------|
G-4----4-------------22------2-0-|--------1--------------------2---|
D-5----5----------4--------------|-----0--0--0-0-------------------|
A-5---------5-----2--------------|--3-----2--------0---------------|
E-3------------------------------|---------------------------------/


(G) (Bm) (C) (D) D(b9)

e-3---3--------------------------|-------0--------2---------------------\
B-3-----------0----------3-------|-------------0--------3----4----------|
G-0--------0----------2--2----2--|----0-----0--------2-----2----2--2--0-|
D-0----------------4-----4-------|----------------0---------------------|
A------------------2-------------|--3-----------------------------------|
E-3------------------------------|--------------------------------------/

(G) (Bm)
e-3------3---------------------2----------\
B-3------3-------0-----------3---------0--|
G-0------0----0-----------2---------2-----|
D-0------0-----------4--------------------|
A--------------------2--------------------|
E-3------3--------------------------------/

(C) (A) (D)
e--------0------------------0----|-2-------2------------\
B--------1-------1-0-------------|-3-----3--------------|
G----0-------0--------2--2-----2-|-2---2----------------|
D---------------------2----------|-0-----------0--------|
A-3-------------------0----------|----------------------|
E--------------------------------|----------------------/

(D) (E)(F) ...End Intro
e-0---0--1----0--0--1----\
B-3-----------3----------|
G-2-----------2----------|
D-0-----------0----------|
A------------------------|
E------------------------/

WORDS AND MUSIC BY:
Paul McCartney and Linda McCartney


(G) (Bm) (C)
When you were young and your heart__
(C) (D) D(b9)
__was an o__pen book,___
(G) (Bm) (C)
you used to say live and let live.__
(C) (D) D(b9)
You know you did, you know you did,
(G)
___you know you did.__
(G) (Bm)

But if this ev___er chan__in' world._____
(C) (A)
_____in which we live in_____
(A) (D) (D)(E)(F)
makes you__give in and__cry,_____


w/Distortion
(G5) (C5) G(b5) (G5v)
e-------------------------------------------------------------\
B-------------------------------------------------------------|
G---------------------------5---------6-----------7-----------|
D-----------------5---------5---------5-----------5-----------|
A--sl-----p-------5---x-x---3---x-x---4----x-x----5---x-x-----|
E-20\----30------3---x-x---3---x-x---3----x-x----3---x-x-----/

(G5)
_______say, live and let die,____

(C5) ... G(b5) ... (G5v)
(G5)

________ live and let die.__

(C5) ... G(b5) ... (G5v)

* Twice ................................
e-------------------------|----------------\
B--------15--(15)\--------|-10-------------|
G--12-14-15--(15)\---7--9-|-10-------5-3-0-|
D--12-14-15--(15)\---7--9-|-10-------5-3-0-|
A-------------------------|----------------|
E-------------------------|----------------/
* Twice .................................
e-------------------------|----------------\
B--------15--(15)\--------|-10-------------|
G--12-14-15--(15)\---7--9-|-10----5-----3--|
D--12-14-15--(15)\---7--9-|-10----5-----3--|
A-------------------------|----------------|
E-------------------------|----------------/
* Synth. sound effects....................

** Half time Reggae feel **

(C).......................... (G).................... [P.M.]
e-------------------------------|[P.M.]--------------3-3---3--3--\
B-5-x-x-x-5-5-x---5---5---x-x-5-|-3-3-x-x-x-x-x-x----3-3---3--3--|
G-5-x-x-x-5-5-x---5---5---x-x-5-|-4-4-x-x-x-x-x-x----------------|
D-5-x-x-x-5-5-x---5---5---x-x-5-|-5-5-x-x-x-x-x-x----------------|
A-------------------------------|--------------------------------|
E-------------------------------|--------------------------------/

(D)......................... (E5)........... (F5).........
e[P.M.]----10-[......P.M......]|---------------------------------\
B-7-7--x-x-10--12--10----------|---------------------------------|
G-7-7--x-x-----12--10----------|--9----------x--x--10------(10)--|
D-7-7--x-x------------12---7-7-|--9----------x--x--10------(10)--|
A------------------------------|--7----------x--x---8------( 8)--|
E------------------------------|---------------------------------/

...... (Half time Reggea feel) ......

(C) (G)
What does it mat - ter to ya,_____
(G)
When you got a job__ to do_____
(D) (D)
ya got to do it well.__________
(E5) (F5)
You got to give the oth-er fel-la hell._____


Fill w/harmonizer

e-----------------------full-------|-----p----half---------------\
B---half/full-----15---17-----(17)-|---1513-12-------full-------|
G--14------------------------------|-----------------14-----(14)-|
D----------------------------------|-----------------------------|
A----------------------------------|-----------------------------|
E----------------------------------|-----------------------------/

...........Vibrato
e-------------------------------\
B-------------------------------|
G-------------------------------|
D--12-------------(12) ---------|
A-------------------------------|
E-------------------------------/


(G) (Bm) (C)
Used to say live and let live.__
(C) (D) D(b9)
You know you did, you know you did,
(G)
___you know you did.__
(G) (Bm)

But if this ev___er chan__in' world._____
(C) (A)
_____in which we live in_____
(A) (D) (D)(E)(F)
makes you__give in and__cry,_____

w/Distortion ~~~~ vibrato
e------------15-17-18---------|---~~~~-vibrato---------\
B-----------------------15-17-|-18-------full----------|
G-----------------------------|---------15--(15)--12---|
D-----------------------------|------------------------|
A-sl----p---------------------|------------------------|
E-20\--30--------------------|------------------------/

~~~~ vibrato
e-15-17-18------------|--------------------------------\
B------------15-17-18-|--full---~~~-vibrato------------|
G---------------------|-15-----15----------------------|
D---------------------|--------------------------------|
A---------------------|--------------------------------|
E---------------------|--------------------------------/

~~~ vibrato
e-15-17-18---------|--~~~~-vibrato---------------------\
B------------15-17-|-18-------full---------------------|
G------------------|---------15--(15)--12--------------|
D------------------|-----------------------------------|
A------------------|-----------------------------------|
E------------------|-----------------------------------/

~~~~ vibrato full ~~~~ vibrato End......
e-15-17-18-------------|--18---18-----------------------\
B------------15-17-18--|--------------------------------|
G----------------------|--------------------------------|
D----------------------|--------------------------------|
A----------------------|--------------------------------|
E----------------------|--------------------------------/

#----------------------------------PLEASE NOTE---------------------------------#
#This file is the author's own work and represents their interpretation of the #
#song. You may only use this file for private study, scholarship, or research. #
#------------------------------------------------------------------------------#
#



Тексты песен DM

Rambler's Top100

body {scrollbar-3dlight-color:black; scrollbar-arrow-color:#02221f; scrollbar-base-color:black; scrollbar-darkshadow-color:black; scrollbar-face-color:#8B4513; scrollbar-track-color:#02221f; scrollbar-shadow-color:black; scrollbar-highlight-color:black;}

 
 

Guns N' Roses 2008 © 2020Используются технологии uCoz