Меню сайта
////

Used To Love Her (solo) Тип: табулатура


By IronGuns
Guns N roses
Solo Used to love her

--------------10--------------|----------------------------|
----------13------13----------|---------10-----10/-8--8----|
------11--------------11------|------9------9--------------|
--12--------------------------|--11------------------------|
------------------------------|----------------------------|
------------------------------|----------------------------|



--------------------------|-----------------------------|
--------8-----8/-10--8----|---------10--10--10----10/---|
-----7-----7--------------|-------------11--9-----11/---|
--9-----------------------|--9/-11----------------------|
--------------------------|-----------------------------|
--------------------------|-----------------------------|


|----------------------------------|--------------------------------|
|----------------------------------|--------------------------------|
|----------------------------------|------7--9------7-----7-----7-7-|
|----------------------7-7-9h7-----|--7-9------7-9----7-9---7-9-----|
|--------5-7h5-x-x-7/9---------7-9-|--------------------------------|
|--5h7-x---------------------------|--------------------------------|



------------------------------7-7-|------9-9------------------|
--------------7-7-----9-9-7-9-----|--9-7----------------------|
------9-9-7-9-----9-7-------------|----------9b-9~---7--9--7--|
--9-7-----------------------------|---------------------------|
----------------------------------|---------------------------|
----------------------------------|---------------------------|

------10-10-----10-10-----10-10-----10-10-|-----------------------------|
--10b-------10b-------10b-------10b-------|--10r--8-10--10----8--10h-8--|
------------------------------------------|-----------------------------|
------------------------------------------|-----------------------------|
------------------------------------------|-----------------------------|
------------------------------------------|-----------------------------|



------10-10-----10-10-----10-10-----10-10-|-----------------------------|
--10b-------10b-------10b-------10b-------|--10r--8-10--10----8--10h-8--|
------------------------------------------|-----------------------------|
------------------------------------------|-----------------------------|
------------------------------------------|-----------------------------|
------------------------------------------|-----------------------------|



------7-10-------------------------|-------------------------|
--10b------10r-8-10----8-10--------|-------------------------|
--------------------9b------9r-7---|--9h7----9b---9r-7-------|
---------------------------------9-|------9-------------9----|
-----------------------------------|-------------------------|
-----------------------------------|-------------------------|



-------------------------|-----------------------||
-------------10----------|-----------------------||
--7~---9--7------9r------|--7--------------------||
----------------------9--|-------9-------7-------||
-------------------------|------------9-----7r---||
-------------------------|-----------------------||






Тексты песен DM

Rambler's Top100

body {scrollbar-3dlight-color:black; scrollbar-arrow-color:#02221f; scrollbar-base-color:black; scrollbar-darkshadow-color:black; scrollbar-face-color:#8B4513; scrollbar-track-color:#02221f; scrollbar-shadow-color:black; scrollbar-highlight-color:black;}


Guns N' Roses 2008 © 2020Используются технологии uCoz