Меню сайта
////

There Was A Time (solo) Тип: табулатура


Guns N' Roses - THERE WAS A TIME
Guitar Tablature done in Notepad by bi0h4z4rd

NOTES:
You can see me play it here: http://www.youtube.com/watch?v=i1xm26VAaBU
Also, anyone who saw my other tab, my b string was tuned down half a step so I tabbed it wrong, sorry.
This is 100% accurate and it's how Robin Finke plays it on the unreleased album, CHINESE DEMOCRACY.

KEY:
h = hammer on
p = pull off
^ = bend up
~~ = vibrato
/ = slide
(bd) = bend up and down a few times

Solo #1 by Robin Finke (Standard Tuning: e-E)

e-------1h2---------1h2-1/2--0----------------------|
b--2^~~-----2^~~----------------0-2(bd)-0-----------|
g------------------------------------------4~~------|
D---------------------------------------------------|
A---------------------------------------------------|
E---------------------------------------------------|


e-------1h2---------1h2-1/2--0----------------------|
b--2^~~-----2^~~----------------0/6^/7~~------------|
g---------------------------------------------------|
D---------------------------------------------------|
A---------------------------------------------------|
E---------------------------------------------------|


e--7p5~~--7------5-9(bd)-5------5h7~~--10p9p7~~----5h7--------------|
b-----------7~~------------5~~-------------------------6^(hold)^^^--|
g-------------------------------------------------------------------|
D-------------------------------------------------------------------|
A-------------------------------------------------------------------|
E-------------------------------------------------------------------|



Тексты песен DM

Rambler's Top100

body {scrollbar-3dlight-color:black; scrollbar-arrow-color:#02221f; scrollbar-base-color:black; scrollbar-darkshadow-color:black; scrollbar-face-color:#8B4513; scrollbar-track-color:#02221f; scrollbar-shadow-color:black; scrollbar-highlight-color:black;}


Guns N' Roses 2008 © 2020Используются технологии uCoz