Меню сайта
////

Talkin Jive Live Тип: табулатура


Guns N' Roses
Double Talkin' Jive
Tuning- Half Step Down
(Tokyo Riff)

|-----------------|
|-----------------|
|-----------------|
|-----------------|2x
|-----------------|
|-0-0-0-0-0-0-0-0-|
*Palm Mute
|----------------------------------------------|
|----------------------------------------------|
|----------------------------------------------|
|---0h2-0h2-----------------0h2-0h2-0h2-0h3~~~~|4x
|---0h2-0h2-----------------0h2-0h2-0h2-0h3~~~~|
|-----------0-0-0-0-0-0-0-0--------------------|
*Palm Mute E String

|-------------------------------------------------|
|-------------------------------------------------|
|-------------------------------------------------|
|-------2-------2--2-------------------------2----|
|-------2-------2--2-----------0--2--0-------2----|
|---0pm-----0pm--------0pm-3pm------------3-------|

|------------------------------------------------|
|------------------------------------------------|
|------------------------------------------------|
|---2--2------2--2-------------------------------|
|---2--2------2--2----------------2p--0----------|
|---0--0---0----------0---3p--0----------3p--0---|



Solo:
|----------------------------------------------------------------------------|
|----------------------------------------------------------------------------|
|-----------------------------------4~----/7-5h7p5--\4h5~--------------------|
|--2/3~---3hb-3~---3hb-3-2h3p2-----------------------------------------------|
|-------------------------------2--------------------------------------------|
|----------------------------------------------------------------------------|

|----------------------------------------------------------------------------|
|---8--6-5-6--/-8-6h8p6-\-5h6----/-12--/-15~~~--13h15p13--\--12h13-----------|
|-5---------------------------4----------------------------------------------|
|----------------------------------------------------------------------------|
|----------------------------------------------------------------------------|
|----------------------------------------------------------------------------|

|----15--13-13-12h13hb--13-12~---12h13p12\10---------------------------------|
|-13------------------------------------------12-----------------------------|
|----------------------------------------------------------------------------|
|----------------------------------------------------------------------------|
|----------------------------------------------------------------------------|
|----------------------------------------------------------------------------|

|-------------------------------------------------------------19------19~----|
|--8h12p8----------------------------------------18hb--18-17-----------------|
|----------11p10-----9h10p9---12\10---/14~---/17-----------------------------|
|----------------------------------------------------------------------------|
|----------------------------------------------------------------------------|
|----------------------------------------------------------------------------|

|-20hb--20~-------------20-19h20-----------------------19-18-19--------------|
|------------18-17-18------------18-17-18-17hb---17~-------------------------|
|----------------------------------------------------------------------------|
|----------------------------------------------------------------------------|
|----------------------------------------------------------------------------|
|----------------------------------------------------------------------------|

|----19----19--------x-------------------------------------------------------|
|-17----17----17------x------------------------------------------------------|
|----------------------x-9-12-10hb--10-(10)-(10)~--12--10--12--10------------|
|----------------------------------------------------------------------------|
|----------------------------------------------------------------------------|
|----------------------------------------------------------------------------|

|----------------------------------------------------------------------------|
|----------------------------------------------------------------------------|
|-x-x-10 9-(9)-(9)~----4-(4)-(4)-(4)~----------------------------------------|
|----------------------------------------6-(6)-(6)~---2-(2)-(2)~----2-/-3----|
|----------------------------------------------------------------------------|
|----------------------------------------------------------------------------|

|--------------------------------------------7~~~~---------------------------|
|----------------3-/-6~----5-6-5-6-5-6---------------------------------------|
|-------2--3--5------------------------6--4----------------------------------|
|-3--5-----------------------------------------------------------------------|
|----------------------------------------------------------------------------|
|----------------------------------------------------------------------------|

Acoustic riff:
|-----------1--------------------1---------------------1--------------------1-|
|--------1-----1-----1--------1-----1-----1---------1-----1-----1--------1----|
|-----2-----------2--------2-----------2---------2-----------2--------2-------|
|--3--------------------3---------------------3--------------------3----------|
|-----------------------------------------------------------------------------|
|-----------------------------------------------------------------------------|

|--3--1-----------0---------------------0--------------------0----------------|
|--3--1--------0-----0-----0---------0-----0-----0--------0-----0-----0-------|
|--4--2-----1-----------1---------1-----------1--------1-----------1----------|
|--5--3--2---------------------2--------------------2--------------------2----|
|-----------------------------------------------------------------------------|
|-----------------------------------------------------------------------------|

|--------0------------|
|-----0-----0-----0---|
|--1-----------1------|
|---------------------|
|---------------------|
|---------------------|

qb - quarter step bend
hb - half step bend
fb - full step bend
~ - vibrato
h - Hammer on
p - Pull off
/ \ - Slide up and down
(x) - Strike note while last one still ringing

Стеллажи из металла архивные стеллажи для документов!


Тексты песен DM

Rambler's Top100

body {scrollbar-3dlight-color:black; scrollbar-arrow-color:#02221f; scrollbar-base-color:black; scrollbar-darkshadow-color:black; scrollbar-face-color:#8B4513; scrollbar-track-color:#02221f; scrollbar-shadow-color:black; scrollbar-highlight-color:black;}


Guns N' Roses 2008 © 2018Используются технологии uCoz