Меню сайта
////

So Fine1 Тип: басс табулатура


SO FINE


GUNS N ROSES
bass




F#||------------------|------------------|------------------|------------------|
C#||------------------|------------------|------------------|------------------|
G#||------------------|------------------|------------------|------------------|
D#||------------------|------------------|------------------|------------------|



------------------|-----------------------|----------------------|
------------------|-----------------------|----------------------|
------------------|-----------------------|--2----2-------2-3----|
------------------|--3-------3-3--3-----3-|----------------------|



-----------------------|----------------------|-----------------------|
-----------------------|-----------------0----|-----------------------|
-----------------------|--2-------2-3---------|-----------------------|
--3-------3-3--3-----3-|----------------------|--3-------3-3--3-----3-|



----------------------|-----------------------|----------------------|
----------------------|-----------------------|-----------------0----|
--2----2-------2-3----|-----------------------|--2-------2-3---------|
----------------------|--3-------3-3--3-----3-|----------------------|



-----------------------|----------------------|-----------------------|
-----------------------|----------------------|-----------------------|
-----------------------|--2----2-------2-3----|-----------------------|
--3-------3-3--3-----3-|----------------------|--3-------3-3--3-----3-|



----------------------|------------------------|-------------------------|
-----------------0----|--2----2---2------------|------------------0---0--|
--2-------2-3---------|-------------0--0-----0-|--3-------3-3--3----3----|
----------------------|------------------------|-------------------------|



------------------------|-------------------------|-----------------------|
--2----2---2------------|-------------------------|-----------------------|
-------------0--0-----0-|--3-------3-3--3--3-2-0--|-----------------------|
------------------------|-------------------------|--3-------3-3--3-----3-|



----------------------|-----------------------|----------------------|
----------------------|-----------------------|-----------------0----|
--2----2-------2-3----|-----------------------|--2-------2-3---------|
-----------------1----|--3-------3-3--3-----3-|----------------------|



-----------------------|----------------------|-----------------------|
-----------------------|----------------------|-----------------------|
-----------------------|--2----2-------2-3----|-----------------------|
--3-------3-3--3-----3-|----------------------|--3-------3-3--3-----3-|



----------------------|------------------------|-------------------------|
-----------------0----|--2----2---2------------|------------------0---0--|
--2-------2-3---------|-------------0--0-----0-|--3-------3-3--3----3----|
----------------------|------------------------|-------------------------|



------------------------|-------------------------|------------------------|
--2----2---2------------|------------------0---0--|--2----2---2------------|
-------------0--0-----0-|--3-------3-3--3----3----|-------------0--0-----0-|
------------------------|-------------------------|------------------------|



-------------------------|------------------------|----------------------------|
------------------0---0--|--2----2---2------------|----------------------------|
--3-------3-3--3----3----|-------------0--0-----0-|--3----3----3-3-3-3-3-2-3-2-|
-------------------------|------------------------|----------------------------|



-----------------------|-------------------|---------------------|
--0----0--0----0----2--|----2--------------|------------------0--|
-----------------------|-------------------|---------------------|
-----------------------|-------------------|--3----------3-------|



-------------------|-----------------------|-------------------|
--------0----------|--0----0--0----0----2--|----2--------------|
-------------------|-----------------------|-------------------|
-------------------|-----------------------|-------------------|



---------------------|-------------------|-----------------------|
------------------0--|--------0----------|--0----0--0----0----2--|
---------------------|-------------------|-----------------------|
--3----------3-------|-------------------|-----------------------|



-------------------|---------------------|-------------------|
----2--------------|------------------0--|--------0----------|
-------------------|---------------------|-------------------|
-------------------|--3----------3-------|-------------------|



-----------------------|-------------------|--------------------|
--0----0--0----0----2--|----2--------------|--------------------|
-----------------------|-------------------|--------------------|
-----------------------|-------------------|--3--------------3--|



--------------------|-----------------------|----------------------|
--------------------|-----------------------|----------------------|
--------------------|-----------------------|--2----2-------2-3----|
--3----3------------|--3-------3-3--3-----3-|----------------------|



-----------------------|----------------------|-----------------------|
------------0----------|-----------------0----|-----------------------|
---------------0-------|--2-------2-3---------|-----------------------|
--3-------3-3--3-----3-|----------------------|--3-------3-3--3-----3-|



----------------------|-----------------------|----------------------|
----------------------|-----------------------|-----------------0----|
--2----2-------2-3----|-----------------------|--2-------2-3---------|
----------------------|--3-------3-3--3-----3-|----------------------|



-----------------------|-------------------|---------------------|
--0----0--0----0----2--|----2--------------|------------------0--|
-----------------------|-------------------|---------------------|
-----------------------|-------------------|--3----------3-------|



-------------------|-----------------------|-------------------|
--------0----------|--0----0--0----0----2--|----2--------------|
-------------------|-----------------------|-------------------|
-------------------|-----------------------|-------------------|



---------------------|-------------------|-----------------------|
------------------0--|--------0----------|--0----0--0----0----2--|
---------------------|-------------------|-----------------------|
--3----------3-------|-------------------|-----------------------|



-------------------|---------------------|-------------------|
----2--------------|------------------0--|--------0----------|
-------------------|---------------------|-------------------|
-------------------|--3----------3-------|-------------------|



-----------------------|-------------------|--------------------|
--0----0--0----0----2--|----2--------------|--------------------|
-----------------------|-------------------|--------------------|
-----------------------|-------------------|--3--------------3--|



--------------------|-----------------------|----------------------|
--------------------|-----------------------|----------------------|
--------------------|-----------------------|--2----2-------2-3----|
--3----3------------|--3-------3-3--3-----3-|----------------------|



-----------------------|----------------------|-----------------------|
-----------------------|-----------------0----|-----------------------|
-----------------------|--2-------2-3---------|-----------------------|
--3-------3-3--3-----3-|----------------------|--3-------3-3--3-----3-|



----------------------|-----------------------|------------------------|
----------------------|-----------------------|------------------------|
--2----2-------2-3----|-----------------------|--2-------2-3----3-2-0--|
----------------------|--3-------3-3--3-----3-|------------------------|



-------------------||
-------------------||
-------------------||
--3----------------||




Тексты песен DM

Rambler's Top100

body {scrollbar-3dlight-color:black; scrollbar-arrow-color:#02221f; scrollbar-base-color:black; scrollbar-darkshadow-color:black; scrollbar-face-color:#8B4513; scrollbar-track-color:#02221f; scrollbar-shadow-color:black; scrollbar-highlight-color:black;}

 
 

Guns N' Roses 2008 © 2021Используются технологии uCoz