Меню сайта
////

So Easy Тип: басс табулатура


It's So Easy
Guns N' Roses
Appetite For Destruction 87'
Duff McKagan
play w/ pick

Note: most of the time Duff used a Chorus Effect...and the tuning is dropped a step-
and-a-half (F#,C#,G#,D#)

Intro
|-------------------------------------------|
|--12h14--14--14--14--12h14--14--14--12h14--|
|-------------------------------------------|
|-------------------------------------------|

|-------------------------------------------|
|--14--14--12h14--14--12h14--14--12h14--14--|
|-------------------------------------------|
|-------------------------------------------|


Intro Variation
|-------------------------------------------|---------------------------------|
|--12h14--14--14--14--12h14--14--14--12h14--|--14--14--14--12--14--12---------|
|-------------------------------------------|--------------------------14-----|
|-------------------------------------------|------------------------------0--|


Verse
|------------------------|-------------------------|
|------------------------|-------------------------|
|------------------------|----7--7-----5--7--7-----|
|--6----6--0--3--3----0--|----------7-----------0--|


Chorus
|-------------------------|-------------------------|
|-------------------------|-------------------------|
|-------------------------|----7--7-----5--7--7-----|
|--5--5--3--5--6----6--0--|----------7-----------0--|


Bridge
|------------------|--------------------|
|------------------|--------------------|
|------------------|--------------------|
|--2---------------|--3-----------------|


|-------------------|-------------------|
|-------------------|-------------------|
|--2----------------|--0----------------|
|-------------------|-------------------|


Fill #1
|----------------------|----------------------|----------------------|
|----------------------|----------------------|----------------------|
|--7----7----7----7----|--7----7----7----7----|--7----7----7----7----|
|----------------------|----------------------|----------------------|

|--------------------------|
|--------------------------|
|--7--7--7--5--7--5--------|
|--------------------7--0--|


Pre-Solo
|-------------------------|
|-------------------------|
|--5----5--4--5-----------|
|----------------3--2--0--|


Fill #2
|---------------------|---------------------|---------------------|
|---------------------|---------------------|---------------------|
|---------------------|---------------------|--2------2--2--------|
|---2------2--2-------|--3------3--3--------|---------------------|

|---------------------|
|---------------------|
|---------------------|
|--5------5--5--------|


Outro
|--------------------------|-------------------------|3x
|--8--7--5-----------------|-------------------------|
|-----------7--------------|----7--7--0--5--7--7-----|
|--------------6--5--3--0--|----------------------0--|


|--------------------------|
|--8--7--5-----------------|
|-----------7-----------7--|
|--------------6--5--3--0--|

Order:
Intro 3x
Intro Variation 1x
Verse 4x
Chorus 4x
Verse 4x
Chorus 4x
Bridge 2x
Fill #1 1x
Pre-Solo 3x
Verse 8x
Chorus 4x
Bridge 2x
Fill #2 2x
Verse 8x
Outro 1x



Тексты песен DM

Rambler's Top100

body {scrollbar-3dlight-color:black; scrollbar-arrow-color:#02221f; scrollbar-base-color:black; scrollbar-darkshadow-color:black; scrollbar-face-color:#8B4513; scrollbar-track-color:#02221f; scrollbar-shadow-color:black; scrollbar-highlight-color:black;}


Guns N' Roses 2008 © 2020Используются технологии uCoz