Меню сайта
////

Shotgun Blues (solo) Тип: табулатура


Shotgun Blues ----- Guns N' Roses

Tablature
----------------
L - tied note
h - hammer on
p - pull off
b - bend
br - bendRelease
pb - preBend
~ - vibrato


Slash's solo
submitted by rishab koirala

|--------------------|
|--------------------|
|--------------------|
|--------------------|
|--19----------------|



--------------------------|------------------------|
--------------------------|------------------------|
--------------------------|------------------------|
--------------------------|--2----------2-----4----|
--------------2--0--2--4--|-----3----4-----4-------|
--2--5--2--5--------------|------------------------|



--------------------------------|---------------------2-----|
--------------------------------|------------------2-----2--|
--------------------------2-----|--2-----2--4b--L-----------|
--2h--4p-2----2--4p-2h-4-----4--|-----4---------------------|
-----------4--------------------|---------------------------|
--------------------------------|---------------------------|




--------------------------------|----------------------2-----|
--5b----5--2--------------------|-------------------2-----2--|
--------------4b--4br--L--2-----|--4-----2--4br--L-----------|
-----------------------------4--|-----4----------------------|
--------------------------------|----------------------------|
--------------------------------|----------------------------|



--------5-----7-----5h--7p-5-|--4-----5-----4h--5p-4-------|
--4--7-----7-----7-----------|-----7-----7-----------7--5--|
-----------------------------|-----------------------------|
-----------------------------|-----------------------------|
-----------------------------|-----------------------------|
-----------------------------|-----------------------------|



----------12~---------------|------------------12----------|
--12br----------------L--L--|--12br---------L--------L--L--|
----------------------------|------------------------------|
----------------------------|------------------------------|
----------------------------|------------------------------|
----------------------------|------------------------------|



-----------------------------------|
-----------------------------------|
-----------------------------------|
--------------------------7-7-9p-7-|
-------7----7----7h--9p-7----------|
--7--------------------------------|



--------------------------------------------|----------------------------------|
--------------------------------------------|--10b--L--------------------------|
-------------------------9h-11p-9----9h-11--|----------11p--9--11p---9-11--11--|
-----7--9g11--L--9----11----------11--------|----------------------------------|
--9-----------------------------------------|----------------------------------|
--------------------------------------------|----------------------------------|



----------------------------------|---9-------9---9---9-----7--7--|
----------------------9----11-----|--10--10--10--10--10-9---9--9--|
--11p--9------11------9----11--9--|-------------------------------|
----------11------11--------------|-------------------------------|
----------------------------------|-------------------------------|
----------------------------------|-------------------------------|


--7--5--5--5--5--4--4--4--|--2------------------------|-------------------|
--9--7--7--7--7--5--5--5--|--4------------------------|-------------------|
--------------------------|-----4--4--4~--L--4--4--2--|-------------------|
--------------------------|-----------4~--L--4--4--2--|-------------------|
--------------------------|---------------L-----------|-------------------|
--------------------------|---------------------------|-------------------|


-------------------|------12------L--------|--L----------------|
-------------------|-----------------------|-------------------|
-------------------|--13-------------------|-------------------|
-------------------|-----------------------|-------------------|
-------------------|-----------------------|-------------------|
-------------------|-----------------------|-------------------|



--L~--------L--L---------|------------------------|-------------------|
-------------------------|------------------------|-------------------|
-------------------------|------------------------|-------------------|
-------------------------|------------------------|-------------------|
--------------------12b--|--12br------L--L--------|-------------------|
-------------------------|------------------------|-------------------|



Crank It Baby





Тексты песен DM

Rambler's Top100

body {scrollbar-3dlight-color:black; scrollbar-arrow-color:#02221f; scrollbar-base-color:black; scrollbar-darkshadow-color:black; scrollbar-face-color:#8B4513; scrollbar-track-color:#02221f; scrollbar-shadow-color:black; scrollbar-highlight-color:black;}

 
 

Guns N' Roses 2008 © 2021Используются технологии uCoz