Меню сайта
////

Rocket Queen (solo) Тип: табулатура


Guns n Roses
Rocket queen
Solo tab

e--------------------------------------------------------------------------------|
b--------------------------------------------------------------------------------|
g--------10-----13--12-------7h8h10-----8b-7-10----15b-13-15b-13-1313----17b-15--|
d---10---------------------------------------------------------------------------|
a--------------------------------------------------------------------------------|
E--------------------------------------------------------------------------------|

e--------------------------------------------------------------------------------------------------21-19--|
b----------------------------------------------------------------------------------16-21-19-21------------|
g---17b-15-15-15----19b-17



Тексты песен DM

Rambler's Top100

body {scrollbar-3dlight-color:black; scrollbar-arrow-color:#02221f; scrollbar-base-color:black; scrollbar-darkshadow-color:black; scrollbar-face-color:#8B4513; scrollbar-track-color:#02221f; scrollbar-shadow-color:black; scrollbar-highlight-color:black;}


Guns N' Roses 2008 © 2020Используются технологии uCoz