Меню сайта
////

Of The Dog Тип: басс табулатура


Hair Of The Dog


Guns N' Roses
Bass




F#||------------------|------------------|------------------|------------------|
C#||------------------|------------------|------------------|------------------|
G#||------------------|------------------|------------------|------------------|
D#||------------------|------------------|------------------|------------------|



--------------------|------------------------|-----------------------|
--------------------|---------------------2--|-----------------------|
-------------5\4\---|------------------2-----|-----------------5--7--|
--------------------|--0------0--3--4--------|--------0--3--0--------|



------------------------|-----------------------||-------------------------|
---------------------2--|-----------------------||*---------------------2--|
------------------2-----|-----------------5--7--||*------------------2-----|
--0------0--3--4--------|--------0--3--0--------||---0------0--3--4--------|



-----------------------|------------------------|------------------------||
-----------------------|---------------------2--|-----------------------*||
-----------------5--7--|------------------2-----|-----------------5--7--*||
--------0--3--0--------|--0------0--3--4--------|--------0--3--0---------||



-------------------------|--------------------------|--------------------------|
-------------------------|--------------------------|--------------------------|
-------------------------|--------------------------|--------------------------|
--5----5--5--5--5--5--5--|--5--5--5--5--5--0--3--4--|--5--5--5--5--5--5--5--5--|



--------------------------||-------------------------|------------------------||
--------------------------||*---------------------2--|-----------------------*||
-----------3b-3-----------||*------------------2-----|-----------------5--7--*||
--5--5--5--------5--3--0--||---0------0--3--4--------|--------0--3--0---------||



--------------------|--------------------|--------------------|
--------------------|--------------------|--------------------|
--------------------|--------------------|--7----7\-----------|
--0------------3----|--5----5\-----------|--------------------|



----------------------|---------------------|--------------------|
----------------------|---------------------|--------------------|
----5--5/-7--7--------|--7------------------|--------------------|
----------------------|---------------3--3/-|--5----5\-----------|



--------------------|-----------------------||-------------------------|
--------------------|-----------------------||*---------------------2--|
--7----7\-----------|----5--5\-7--7----7\---||*------------------2-----|
--------------------|-----------------------||---0------0--3--4--------|


5x
------------------------||---------------------------||
-----------------------*||*-------------------------*||
-----------------5--7--*||*-------------------------*||
--------0--3--0---------||---0----0--0--0--0--0--0---||



--------------------------|-----------------------|--------------------------|
--------------------------|-----------------------|--------------------------|
--------------------------|-----------7--7--7--7--|--7--7--7--7--7--7--7--7--|
--0--0--0--0--0--0--0--0--|--0--------------------|--------------------------|



------------------------|--------------------------|-------------------------|
------------------------|--------------------------|-------------------5-----|
------------------------|--------------------------|-------7--7--7--7-----7--|
--0--0--0--0------0--0--|--0--0--0--0--0--0--0--0--|--0----------------------|



--------------------------|--------------------------|
--------------------------|--------5-----------------|
--7--7--7--7--7--7--7--7--|--7--7-----7--7--7--7--7--|
--------------------------|--------------------------|



--------------------------|--------------------------|------------------------|
--------------------------|--------------------------|------------------------|
--7--7--7--7--7--7--7--7--|--7--7--7--7--7--7--7--7--|--7--7--7--7--7--7\-----|
--------------------------|--------------------------|------------------------|



-------------------------|--------------------------|--------------------------|
-------------------------|--------------------------|--------5-----------------|
-------7--7--7--7--7--7--|--7--7--7--7--7--7--7--7--|--7--7-----7--7--7--7--7--|
--0----------------------|--------------------------|--------------------------|



----------------------||-------------------------|------------------------||
----------------------||*---------------------2--|-----------------------*||
--7--5----3----2------||*------------------2-----|-----------------5--7--*||
----------------------||---0------0--3--4--------|--------0--3--0---------||


3x
----------------------------||--------------------------|
*--------------------------*||--------------------------|
*--7--7--7--7--7--7--7--7--*||--7--7--7--7--7--5--6--7--|
----------------------------||--------------------------|


3x
|----------------------------||------------------------|
|*--------------------------*||------------------------|
|*--7--7--7--7--7--7--7--7--*||----5--5--0--3--3--2----|
|----------------------------||------------------------|



|--------------------------|--------------------------|
|*-------------------------|--------------------------|
|*-------------------------|--------------7-----------|
|---0----0--0--0--0--0--0--|--0--0--0--0-----0--0--0--|



--------------------------|--------------------------|
--------------------------|--------------------------|
--7--7--7--7--7--7--7--7--|--5/-7--7--7--5-----------|
--------------------------|-----------------7--5--7--|



--------------------------|--------------------------|
--------------------------|--------------------------|
--7--7--7--7--7--7--7--7--|--7--7--7--7--7-----------|
--------------------------|-----------------0--2--3--|



--------------------------|--------------------------|
--------------------------|--------------------------|
--------------------------|-----3--3--0--5--5--5--7/-|
--0--0--0--0--0--0--0--0--|--0-----------------------|



|---------------------------|--------------------------|
|*--------------------------|--------------------------|
|*--7--7--7--7--7--7--7--7--|--7--7--7--7--7--7--7--7--|
|---------------------------|--------------------------|


7x
--------------------------|---------------------------||
--------------------------|--------------------------*||
--7--7--7--7--7--7--7--7--|--7-----5--6--7--7--7--7--*||
--------------------------|-----7---------------------||



----------------------------||--------------------------|----------------------|
*--------------------------*||--------------------------|----------------------|
*--7--7--7--7--7--7--7--7--*||--7--5-----5--------------|----------------------|
----------------------------||--------7-----7--5--3--0--|----0--0--0--0--------|



------------------|-------------------|------------------|-------------------||
------------------|-------------------|------------------|-------------------||
------------------|-------------------|------------------|-------------------||
------------------|--0----------------|------------------|--0----------------||




Тексты песен DM

Rambler's Top100

body {scrollbar-3dlight-color:black; scrollbar-arrow-color:#02221f; scrollbar-base-color:black; scrollbar-darkshadow-color:black; scrollbar-face-color:#8B4513; scrollbar-track-color:#02221f; scrollbar-shadow-color:black; scrollbar-highlight-color:black;}

 
 

Guns N' Roses 2008 © 2021Используются технологии uCoz