Меню сайта
////

November Rain (solo) Тип: табулатура


Its not the complete solo the last part is missing

------------------------------------------------------------------------------
-9v-/12\9---------9\8/9v----9/12\9--------------12----------------------------
------------11p9---------------------11p9--8v--------9p8p9-8v-----------------
---------------------------------------------------------------11p9--11-------
------------------------------------------------------------------------------
------------------------------------------------------------------------------


-----------------------------------------------------------------9------11v---
------------------9v---9------9p12---9v-----------9\7/9----9p12-----12--------
--------------------------11--------------11p9--------------------------------
-13--9------------------------------------------------------------------------
------------------------------------------------------------------------------
------------------------------------------------------------------------------


-9----9--------------12-11----12-11----14-12v-----9-11-12-11-12-11p12p11-9v---
---12----9-12p9p12---------12-------12----------------------------------------
------------------------------------------------------------------------------
------------------------------------------------------------------------------
------------------------------------------------------------------------------
------------------------------------------------------------------------------


-9-9-11-12-11v--19v------------18-18-18\-16-16-16\-14-14-14\-12-12-12---------
------------------------------------------------------------------------------
------------------------------------------------------------------------------
------------------------------------------------------------------------------
------------------------------------------------------------------------------
------------------------------------------------------------------------------


-11p12p11--9v-----------------------------------------------------------------
------------------------------------------------------------------------------
------------------------------------------------------------------------------
------------------------------------------------------------------------------
------------------------------------------------------------------------------
------------------------------------------------------------------------------



Тексты песен DM

Rambler's Top100

body {scrollbar-3dlight-color:black; scrollbar-arrow-color:#02221f; scrollbar-base-color:black; scrollbar-darkshadow-color:black; scrollbar-face-color:#8B4513; scrollbar-track-color:#02221f; scrollbar-shadow-color:black; scrollbar-highlight-color:black;}


Guns N' Roses 2008 © 2020Используются технологии uCoz