Меню сайта
////

My Michelle Тип: басс табулатура


MY MICHELLE


gunners




F#||------------------|------------------|------------------|
C#||------------------|------------------|------------------|
G#||------------------|------------------|------------------|
D#||------------------|------------------|------------------|



--11------------11----|--------9-8-6--5----6-5-4--|-------------------4-5-|
----------------------|--11-----------------------|--4--------------------|
----------------------|---------------------------|-----------------------|
----------------------|---------------------------|----------0-2----------|



--6----9-8-6--5----6-5-4--|-------------------|------------------------|
--------------------------|--4----------------|------------------------|
--------------------------|-------------------|--4------4-4-3----2---0-|
--------------------------|-------------------|------------------------|



---------------------------|------------------------|
---------------------------|------------------------|
--------------0------------|--4------4-4-3----2---0-|
--2--2--2-0-2-----0-1-2----|------------------------|



---------------------------|------------------------|
---------------------------|------------------------|
--------------0------------|--4------4-4-3----2---0-|
--2--2--2-0-2-----0-1-2----|------------------------|



---------------------------|------------------------|-------------------|
---------------------------|------------------------|--4----------------|
--------------0------------|--4------4-4-3----2---0-|-------------------|
--2--2--2-0-2-----0-1-2----|------------------------|-------------------|



------------------------|--------------------------|------------------------|
------------------------|--------------------------|------------------------|
--4------4-4-3----2---0-|--------------0-----------|--4------4-4-3----2---0-|
------------------------|--2--2--2-0-2-----0--2----|------------------------|



-----------------------|------------------------|--------------------------|
-----------0-----------|------------------------|--------------------------|
--4--4--4----4---------|--4------4-4-3----2---0-|--------------0-----------|
-----------------------|------------------------|--2--2--2-0-2-----0--2----|



------------------------|-----------------------|----------------------|
------------------------|-----------------------|--0----2--------------|
--4------4-4-3----2---0-|--0--------------------|-----------2-------2--|
------------------------|-----2--2--0-2---------|----------------------|



---------------------|------------------------|-------------------|
-------2-------------|--0---------------------|-------------------|
--4--------0---------|-------4----2----0----0-|----------0--------|
---------------------|--------------------4---|-------------------|



------------------------|---------------------------|------------------------|
------------------------|---------------------------|------------------------|
--4------4-4-3----2---0-|--------------0------------|--4------4-4-3----2---0-|
------------------------|--2--2--2-0-2-----0-1-2----|------------------------|



-------------------|------------------------|--------------------------|
--4----------------|------------------------|--------------------------|
-------------------|--4------4-4-3----2---0-|--------------0-----------|
-------------------|------------------------|--2--2--2-0-2-----0--2----|



------------------------|-----------------------|------------------------|
------------------------|-----------0-----------|------------------------|
--4------4-4-3----2---0-|--4--4--4----4---------|--4------4-4-3----2---0-|
------------------------|-----------------------|------------------------|



--------------------------|------------------------|-----------------------|
--------------------------|------------------------|-----------------------|
--------------0-----------|--4------4-4-3----2---0-|--0--------------------|
--2--2--2-0-2-----0--2----|------------------------|-----2--2--0-2---------|



----------------------|---------------------|------------------------|
--0----2--------------|-------2-------------|--0---------------------|
-----------2-------2--|--4--------0---------|-------4----2----0----0-|
----------------------|---------------------|--------------------4---|



-------------------------|--------------------------|---------------------|
-------------------------|--0----2------------------|-------2-------------|
----0--0--0--0--0--0--0--|-----------2--2-2--2-2-2--|--4------------------|
-------------------------|--------------------------|-----------2---------|



------------------------|-------------2--2--2--2--|--------------------------|
--0---------------------|-------------------------|--2--2--0-0---------------|
-------4----2----0----0-|----0--0--0--------------|-------------0---0--0--0--|
--------------------4---|-------------------------|--------------------------|



------------------------|----------------------|
--------------------2---|--2----0--------------|
--2---------------------|-----------0---0------|
-------4---0---0--0-----|----------------------|



----------------------1-1-2-2-3-3-|--------------------------|
------1-1-2-2-3-3-4-4-------------|--2--2--0-0---------------|
--2-2-----------------------------|-------------0---0--0--0--|
----------------------------------|--------------------------|



------------------------|----------------------|
--------------------2---|--2----0--------------|
--2---------------------|-----------0---0------|
-------4---0---0--0-----|----------------------|



----------------------------------|----------------------|
----------------------------------|----------------------|
--2-2-2-2-2-2-2-2-2-2-2-2-2-2-2-2-|--4--------3----2---0-|
----------------------------------|----------------------|



--------------------------|-----------------------|-------------------|
--------------------------|-----------------------|--4----------------|
--------------0-----------|--4------4-4-3----2----|-------------------|
--2--2--2-0-2-----0--2----|-----------------------|-------------------|



--------------------------|--------------------------|
--------------0-----------|--------------------------|
--2--2--2-0-2-----0--2----|----------------------0---|
--------------------------|--3--3--3--3--3--3--3-----|



--------------------------|--------------------------|
--------------0-----------|--------------------------|
--2--2--2-0-2-----0--2----|----------------------0---|
--------------------------|--3--3--3--3--3--3--3-----|



--------------------------|--------------------------|
--------------0-----------|--------------------------|
--2--2--2-0-2-----0--2----|----------------------0---|
--------------------------|--3--3--3--3--3--3--3-----|



--------------------------|--------------------------|------------------------|
--------------0-----------|--------------------------|------------------------|
--2--2--2-0-2-----0--2----|----------------------0---|--4------4-4-3----2---0-|
--------------------------|--3--3--3--3--3--3--3-----|------------------------|



--------------------------|------------------------|-----------------------|
--------------------------|------------------------|-----------0-----------|
--------------0-----------|--4------4-4-3----2---0-|--4--4--4----4---------|
--2--2--2-0-2-----0--2----|------------------------|-----------------------|



------------------------|--------------------------|------------------------|
------------------------|--------------------------|------------------------|
--4------4-4-3----2---0-|--------------0-----------|--4------4-4-3----2---0-|
------------------------|--2--2--2-0-2-----0--2----|------------------------|



-----------------------|----------------------|---------------------|
-----------------------|--0----2--------------|-------2-------------|
--0--------------------|-----------2-------2--|--4--------0---------|
-----2--2--0-2---------|----------------------|---------------------|



------------------------|-------------------------|--------------------------|
--0---------------------|-------------------------|--0----2------------------|
-------4----2----0----0-|----0--0--0--0--0--0--0--|-----------2--2-2--2-2-2--|
--------------------4---|-------------------------|--------------------------|



---------------------|--7-7-7-7-6-6-6-6-4-4-4-4-2--1-2-|
-------2-------------|---------------------------------|
--4------------------|---------------------------------|
-----------2---------|---------------------------------|



---2-2-2-2-2-2-2-2--0--------|-------------------------------|
-----------------------2-----|-------------------------------|
--------------------------3--|----0-0-0---0-0-0---0-0-0--3---|
-----------------------------|--4-------4-------4------------|



-------------------------------|-------------------------------|
-------------------------------|-------------------------------|
----0-0-0---0-0-0---0-0-0--3---|----0-0-0---0-0-0---0-0-0--3---|
--4-------4-------4------------|--4-------4-------4------------|



-------------------------------|------------------|-------------------||
-------------------------------|------------------|-------------------||
----0-0-0---0-0-0---0-0-0--3---|------------------|--0----------------||
--4-------4-------4------------|------------------|-------------------||


купить сколько стоит диплом бакалавра двфу.


Тексты песен DM

Rambler's Top100

body {scrollbar-3dlight-color:black; scrollbar-arrow-color:#02221f; scrollbar-base-color:black; scrollbar-darkshadow-color:black; scrollbar-face-color:#8B4513; scrollbar-track-color:#02221f; scrollbar-shadow-color:black; scrollbar-highlight-color:black;}


Guns N' Roses 2008 © 2018Используются технологии uCoz