Меню сайта
////

Locomotive1 Тип: басс табулатура


Locomotive by Guns N Roses
tabbed by Doug appetite_for_destruction69
 
Drop D tuning

F#|------------------|------------------|------------------|---------------|
C#|------------------|------------------|------------------|---------------|
G#|------------------|------------------|------------------|---------------|
D#|------------------|------------------|------------------|---------------|



-------------------|---------------------------|-------------------------|
-------------------|--------------0--0-1--1-2--|----2--4--2--4--2--4-----|
----------------0--|----0--4-0-0---------------|----------------------0--|
-------------------|---------------------------|-------------------------|



---------------------------|-------------------------|
--------------0--0-1--1-2--|----2--4--2--4--2--4-----|
----0--4-0-0---------------|----------------------0--|
---------------------------|-------------------------|



---------------------------|-------------------------|
--------------0--0-1--1-2--|----2--4--2--4--2--4-----|
----0--4-0-0---------------|----------------------0--|
---------------------------|-------------------------|



---------------------------|----------------0--------|---------------------|
--------------0--0-1--1-2--|----2--4--2--4-----4--2--|---0-2--0-2--0--0--2-|
----0--4-0-0---------------|-------------------------|---------------------|
---------------------------|-------------------------|---------------------|



-------------------------|-------------------------|------------0----0----|
------0-2--0-2--0--0--2--|------0-2--0-2--0--0--2--|------0-2-------------|
-------------------------|-------------------------|----------------------|
-------------------------|-------------------------|----------------------|



--2-----2----2----2----------|--2-----2----2----2----------|
------4----4----4----2-2-4-2-|------4----4----4----2-2-4-2-|
-----------------------------|-----------------------------|
-----------------------------|-----------------------------|




--2--2--2--2--2--2--------|--2--2--2--2--2--2--------|
--------------------2--4--|--------------------2--4--|
--------------------------|--------------------------|
--------------------------|--------------------------|



--2--2--2--2--2--2--------|--2--2--2--2--2--2--------|
--------------------2--4--|--------------------2--4--|
--------------------------|--------------------------|
--------------------------|--------------------------|



--2--2--2--2--2--2--------|--2--2--2--2--2--2--------|
--------------------2--4--|--------------------2--4--|
--------------------------|--------------------------|
--------------------------|--------------------------|



--2--2--2--2--2--2--------|--2--2--2--2--2--2--------|
--------------------2--4--|--------------------2--4--|
--------------------------|--------------------------|
--------------------------|--------------------------|



--2--2--2--2--2--2--------|--2--2--2--2--2--2--------|
--------------------2--4--|--------------------2--4--|
--------------------------|--------------------------|
--------------------------|--------------------------|



--0--0--0--0--0--0--1--2--|--0--0--0--0--0--0--1--2--|
--------------------------|--------------------------|
--------------------------|--------------------------|
--------------------------|--------------------------|



--2--2--1--1--0--0--------|-----7--5----------------|--------------------------|
--------------------4--4--|--3--------6--7--7----7--|--7--7--6--6--5--5--4--4--|
--------------------------|-------------------------|--------------------------|
--------------------------|-------------------------|--------------------------|



-----7--5----------------|--------------------------|-----7--5----------------|
--3--------6--7--7----7--|--7--7--6--6--5--5--4--4--|--3--------6--7--7----7--|
-------------------------|--------------------------|-------------------------|
-------------------------|--------------------------|-------------------------|



--------------------------|-----7--5----------------|--------------------|
--7--7--6--6--5--5--4--4--|--3--------6--7--7----7--|--7-7---------------|
--------------------------|-------------------------|--------------------|
--------------------------|-------------------------|--------------------|



--------------------|--------------------|--------------------|
--7-7---------------|--7-7---------------|--7-7---------------|
--------------------|--------------------|--------------------|
--------------------|--------------------|--------------------|



----7-------7---------|----7-------7---------|----7-------7---------|
--------7-------7-----|--------7-------7-----|--------7-------7-----|
----------------------|----------------------|----------------------|
----------------------|----------------------|----------------------|



----7-------|--5----------------|--2--2--2--2--2--2--------|
--------7---|-------------------|--------------------2--4--|
------------|-------------------|--------------------------|
------------|-------------------|--------------------------|



--2--2--2--2--2--2--------|--2--2--2--2--2--2--------|
--------------------2--4--|--------------------2--4--|
--------------------------|--------------------------|
--------------------------|--------------------------|



--2--2--2--2--2--2--------|--2--2--2--2--2--2--------|
--------------------2--4--|--------------------2--4--|
--------------------------|--------------------------|
--------------------------|--------------------------|



--2--2--2--2--2--2--------|--2--2--2--2--2--2--------|
--------------------2--4--|--------------------2--4--|
--------------------------|--------------------------|
--------------------------|--------------------------|



--2--2--2--2--2--2--------|--2--2--2--2--2--2--------|
--------------------2--4--|--------------------2--4--|
--------------------------|--------------------------|
--------------------------|--------------------------|



--2--2--2--2--2--2--------|--2--2--2--2--2--2--------|
--------------------2--4--|--------------------2--4--|
--------------------------|--------------------------|
--------------------------|--------------------------|



--2--2--2--2--2--2--------|--2--2--2--2--2--2--------|
--------------------2--4--|--------------------2--4--|
--------------------------|--------------------------|
--------------------------|--------------------------|



--2--2--2--2--2--2--------|--2--2--2--2--2--2--------|
--------------------2--4--|--------------------2--4--|
--------------------------|--------------------------|
--------------------------|--------------------------|



--2--2--2--2--2--2--------|--2--2--2--2--2--2--------|
--------------------2--4--|--------------------2--4--|
--------------------------|--------------------------|
--------------------------|--------------------------|



--2--2--2--2--2--2--------|--2--2--2--2--2--2--------|
--------------------2--4--|--------------------2--4--|
--------------------------|--------------------------|
--------------------------|--------------------------|



--0--0--0--0--0--0--1--2--|------2----2--3--4--6--|------6----6--5--4--2--|
--------------------------|-----------------------|-----------------------|
--------------------------|-----------------------|-----------------------|
--------------------------|-----------------------|-----------------------|



------2----2--3--4--6--|------6----6--5--4--2--|------2----2--0-----0--|
-----------------------|-----------------------|-----------------2-----|
-----------------------|-----------------------|-----------------------|
-----------------------|-----------------------|-----------------------|



------------0--------0--|------------0--------0--|------------0-----0--0--|
------2--2-----2--2-----|------2--2-----2--2-----|------2--2-----2--------|
------------------------|------------------------|------------------------|
------------------------|------------------------|------------------------|



------------0----0----|--2--2--2--2--2--2--------|--2--2--2--2--2--2--------|
------2--2------------|--------------------2--4--|--------------------2--4--|
----------------------|--------------------------|--------------------------|
----------------------|--------------------------|--------------------------|



--2--2--2--2--2--2--------|--2--2--2--2--2--2--------|
--------------------2--4--|--------------------2--4--|
--------------------------|--------------------------|
--------------------------|--------------------------|



--2--2--2--2--2--2--------|--2--2--2--2--2--2--------|
--------------------2--4--|--------------------2--4--|
--------------------------|--------------------------|
--------------------------|--------------------------|



--2--2--2--2--2--2--------|--2--2--2--2--2--2--------|
--------------------2--4--|--------------------2--4--|
--------------------------|--------------------------|
--------------------------|--------------------------|



--2--2--2--2--2--2--------|--2--2--2--2--2--2--------|
--------------------2--4--|--------------------2--4--|
--------------------------|--------------------------|
--------------------------|--------------------------|



--2--2--2--2--2--2--------|--2--2--2--2--2--2--------|
--------------------2--4--|--------------------2--4--|
--------------------------|--------------------------|
--------------------------|--------------------------|



--2--2--2--2--2--2--------|--2--2--2--2--2--2--------|
--------------------2--4--|--------------------2--4--|
--------------------------|--------------------------|
--------------------------|--------------------------|



--2--2--2--2--2--2--------|--2--2--2--2--2--2--------|
--------------------2--4--|--------------------2--4--|
--------------------------|--------------------------|
--------------------------|--------------------------|



--2--2--2--2--2--2--------|--2--2--2--2--2--2--------|
--------------------2--4--|--------------------2--4--|
--------------------------|--------------------------|
--------------------------|--------------------------|



--2--2--2--2--2--2--------|--0--0--0--0--0--0--1--2--|
--------------------2--4--|--------------------------|
--------------------------|--------------------------|
--------------------------|--------------------------|



--0--0--0--0--0--0--1--2--|--2--2--1--1--0--0--------|-----7--5----------------|
--------------------------|--------------------4--4--|--3--------6--7--7----7--|
--------------------------|--------------------------|-------------------------|
--------------------------|--------------------------|-------------------------|



--------------------------|-----7--5----------------|--------------------------|
--7--7--6--6--5--5--4--4--|--3--------6--7--7----7--|--7--7--6--6--5--5--4--4--|
--------------------------|-------------------------|--------------------------|
--------------------------|-------------------------|--------------------------|



-----7--5----------------|--------------------------|-----7--5----------------|
--3--------6--7--7----7--|--7--7--6--6--5--5--4--4--|--3--------6--7--7----7--|
-------------------------|--------------------------|-------------------------|
-------------------------|--------------------------|-------------------------|



--------------------|--------------------|--------------------|
--7-7---------------|--7-7---------------|--7-7---------------|
--------------------|--------------------|--------------------|
--------------------|--------------------|--------------------|



--------------------|----7-------7---------|----7-------7---------|
--7-7---------------|--------7-------7-----|--------7-------7-----|
--------------------|----------------------|----------------------|
--------------------|----------------------|----------------------|



----7-------7---------|----7-------|--5----------------|
--------7-------7-----|--------7---|-------------------|
----------------------|------------|-------------------|
----------------------|------------|-------------------|



--2--2--2--2--2--2--------|--2--2--2--2--2--2--------|
--------------------2--4--|--------------------2--4--|
--------------------------|--------------------------|
--------------------------|--------------------------|



--2--2--2--2--2--2--------|--2--2--2--2--2--2--------|
--------------------2--4--|--------------------2--4--|
--------------------------|--------------------------|
--------------------------|--------------------------|



--2--2--2--2--2--2--------|--2--2--2--2--2--2--------|
--------------------2--4--|--------------------2--4--|
--------------------------|--------------------------|
--------------------------|--------------------------|



--2--2--2--2--2--2--------|--2--2--2--2--2--2--------|
--------------------2--4--|--------------------2--4--|
--------------------------|--------------------------|
--------------------------|--------------------------|



--2--2--2--2--2--2--------|--2--2--2--2--2--2--------|
--------------------2--4--|--------------------2--4--|
--------------------------|--------------------------|
--------------------------|--------------------------|



--2--2--2--2--2--2--------|--2--2--2--2--2--2--------|------------------|
--------------------2--4--|--------------------2--4--|------------------|
--------------------------|--------------------------|------------------|
--------------------------|--------------------------|------------------|



------------------|------------------|--2--2--1--1--0--0--------|
------------------|------------------|--------------------4--4--|
------------------|------------------|--------------------------|
------------------|------------------|--------------------------|



-----7--5----------------|--------------------------|-----7--5----------------|
--3--------6--7--7----7--|--7--7--6--6--5--5--4--4--|--3--------6--7--7----7--|
-------------------------|--------------------------|-------------------------|
-------------------------|--------------------------|-------------------------|



--------------------------|-----7--5----------------|--------------------------|
--7--7--6--6--5--5--4--4--|--3--------6--7--7----7--|--7--7--6--6--5--5--4--4--|
--------------------------|-------------------------|--------------------------|
--------------------------|-------------------------|--------------------------|



-----7--5----------------|--------------------|--------------------|
--3--------6--7--7----7--|--7-7---------------|--7-7---------------|
-------------------------|--------------------|--------------------|
-------------------------|--------------------|--------------------|



--------------------|--------------------|----7-------7---------|
--7-7---------------|--7-7---------------|--------7-------7-----|
--------------------|--------------------|----------------------|
--------------------|--------------------|----------------------|



----7-------7---------|----7-------7---------|----7-------7---------|
--------7-------7-----|--------7-------7-----|--------7-------7-----|
----------------------|----------------------|----------------------|
----------------------|----------------------|----------------------|



----7-------7---------|----7-------7---------|----7-------7---------|
--------7-------7-----|--------7-------7-----|--------7-------7-----|
----------------------|----------------------|----------------------|
----------------------|----------------------|----------------------|



----7-------|--5----------------|------------------|------------------|
--------7---|-------------------|------------------|------------------|
------------|-------------------|------------------|------------------|
------------|-------------------|------------------|------------------|



------------------|------------------|------------------|------------------|
------------------|------------------|------------------|------------------|
------------------|------------------|------------------|------------------|
------------------|------------------|------------------|------------------|



------------------|------------------|------------------|------------------|
------------------|------------------|------------------|------------------|
------------------|------------------|------------------|------------------|
------------------|------------------|------------------|------------------|



------------------|------------------|------------------|------------------|
------------------|------------------|------------------|------------------|
------------------|------------------|------------------|------------------|
------------------|------------------|------------------|------------------|



------------------|------------------|------------------|------------------|
------------------|------------------|------------------|------------------|
------------------|------------------|------------------|------------------|
------------------|------------------|------------------|------------------|



------------------|------------------|------------------|------------------|
------------------|------------------|------------------|------------------|
------------------|------------------|------------------|------------------|
------------------|------------------|------------------|------------------|



------------------|------------------|-------------------|-----------------|
------------------|------------------|--2----------------|--------0--------|
------------------|------------------|-------------------|-----------------|
------------------|------------------|-------------------|-----------------|



-------------------|------------------|-------------------|----------------|
-------------------|------------------|--2----------------|--------0-------|
--3----------------|------------------|-------------------|----------------|
-------------------|------------------|-------------------|----------------|



-------------------|------------------|-------------------|----------------|
-------------------|------------------|--2----------------|--------0-------|
--3----------------|------------------|-------------------|----------------|
-------------------|------------------|-------------------|----------------|



-------------------|------------------|-------------------|----------------|
-------------------|------------------|--2----------------|--------0-------|
--3----------------|------------------|-------------------|----------------|
-------------------|------------------|-------------------|----------------|



-------------------|------------------|-------------------|----------------|
-------------------|------------------|--2----------------|--------0-------|
--3----------------|------------------|-------------------|----------------|
-------------------|------------------|-------------------|----------------|



-------------------|------------------|-------------------|----------------|
-------------------|------------------|--2----------------|--------0-------|
--3----------------|------------------|-------------------|----------------|
-------------------|------------------|-------------------|----------------|



-------------------|------------------|-------------------|----------------|
-------------------|------------------|--2----------------|--------0-------|
--3----------------|------------------|-------------------|----------------|
-------------------|------------------|-------------------|----------------|



-------------------|------------------|-------------------|----------------|
-------------------|------------------|--2----------------|--------0-------|
--3----------------|------------------|-------------------|----------------|
-------------------|------------------|-------------------|----------------|



-------------------|------------------|-------------------|----------------|
-------------------|------------------|--2----------------|--------0-------|
--3----------------|------------------|-------------------|----------------|
-------------------|------------------|-------------------|----------------|

Super
Nazareth

-------------------|------------------|
-------------------|------------------|
--3----------------|------------------|
-------------------|------------------|



Тексты песен DM

Rambler's Top100

body {scrollbar-3dlight-color:black; scrollbar-arrow-color:#02221f; scrollbar-base-color:black; scrollbar-darkshadow-color:black; scrollbar-face-color:#8B4513; scrollbar-track-color:#02221f; scrollbar-shadow-color:black; scrollbar-highlight-color:black;}

 
 

Guns N' Roses 2008 © 2021Используются технологии uCoz