Меню сайта
////

Live And Let Die Тип: табулатура


Tune down 1/2 step
1st:Eb 4th:Db
2nd:Bb 5th:Ab
3rd:Gb 6th:Eb
H= Hammer on
P=Pull off
/=Slide

Chords-


Gmaj Bmin Cmaj D7 A7
Eb|3------2-----0-----2---0------|
Bb|3------3-----1-----1---2------|
Gb|0------4-----0-----2---0------|
Db|0------4-----2-----0---2------|
Ab|2------2-----3-----x---0------|
Eb|3------2-----3-----x---x------|

Bb/D G7 Gdim7 C9 Emin Fmaj Ebmin
Eb|1-----1-----3-------x----0------1------6--|
Bb|2-----0-----2-------3----0------1------7--|
Gb|2-----0-----3-------3----0------2------8--|
Db|0-----0-----2-------2----2------3------8--|
Ab|x-----2-----x-------3----2------3------6--|
Eb|x-----3-----x-------x----0------1------x--|

Gmaj Bmin Cmaj
When you were young, and your heart

D7
Was an open book,

Gmaj Bmin Cmaj
You used to say live and let Live

D7 Gmaj
(You know you did, You know you did,You know you did,)

Gmaj Bmin Cmaj A7
But if this ever changing world in which we live in

Dmaj Bb/D
Makes you give in and cry...


Say live and let Die!

(Distortion)
G7, Cmaj
Live and let die
Gdim7, G7
Live and let die

G7, Cmaj Gdim7
Live and let die


X2
Eb|---3-5-6-----------------3-5-6--------------|
Bb|-----------3-5-6-----------------3-5-6------|
Gb|------------------5-3-------------------5-3-|

Eb|---------------------|
Bb|---------------------|
Gb|---9/3--------7/0----|
Db|---------------------|
Ab|---------------------|
Eb|---------------------|


X2
Eb|-----2--4--0--2|
Bb|--3--3--5--1--3|
Gb|--3------------|
Db|---------------|
Ab|---------------|
Eb|---------------|


Eb|-----2--4--0--2--0--2--4----0--2--4--6|
Bb|--3--3--5--1--3--1--3--5----1--3--5--7|
Gb|--3-----------------------------------|
Db|--------------------------------------|
Ab|--------------------------------------|
Eb|--------------------------------------|


(With a reggae feel)

C9
What does it matter to ya?

G7 D7
When you got a job to do ya gotta do it well.

Emin Fmaj
Ya got ta give the other fella hell!

X4
Eb|---3-5-6-----------------3-5-6--------------|
Bb|-----------3-5-6-----------------3-5-6------|
Gb|------------------5-3-------------------5-3-|

Intrumental:

Gmaj, Bmin, Cmaj, D7


Gmaj Bmin Cmaj
You used to say live and let live

D7
(You know you did, You know you did, You know you did)


Gmaj Bmin Cmaj A7
But if this ever changing world in which we live in

Dmaj Bb/D
Makes you give in and cry...


Say live and let Die!

(Distortion)
G7, Cmaj
Live and let die
Gdim7, G7
Live and let die

G7, Cmaj Gdim7
Live and let die



X3
Eb|---3-5-6-----------------3-5-6--------------|
Bb|-----------3-5-6-----------------3-5-6------|
Gb|------------------5-3-------------------5-3-|

Then


Eb|---3-5-6-----------------3-5-6--------------6-|
Bb|-----------3-5-6-----------------3-5-6------7-|
Gb|------------------5-3-------------------5---8-|
Db|--------------------------------------------8-|
Ab|--------------------------------------------6-|
Eb|--------------------------------------------x-|



Тексты песен DM

Rambler's Top100

body {scrollbar-3dlight-color:black; scrollbar-arrow-color:#02221f; scrollbar-base-color:black; scrollbar-darkshadow-color:black; scrollbar-face-color:#8B4513; scrollbar-track-color:#02221f; scrollbar-shadow-color:black; scrollbar-highlight-color:black;}

 
 

Guns N' Roses 2008 © 2021Используются технологии uCoz