Меню сайта
////

Its So Easy Тип: табулатура


It' so easy
Appetite for destruction
Guns N' Roses



Riff 1
|---------------|--------------|
|---------------|--------------|
|---------------|--------------|
|---------------|-14-14--12-14-|
|-7---5-5---2---|-14-14--12-14-|
|-5---3-3---0---|--------------|

In this riff, you can include dead notes to give
it this funky feeling.

Riff 2
|---------------------|
|----------10p9p7--11-|
|-9-9-7-9----------9--|
|-9-9-7-9-------------|
|---------------------|
|---------------------|

Cool Riff (actually, i didn't know how to name it...)
|------------------------------------------------|
|------------------------------------------------|
|-----------------------------0----0-----0-----0-|
|-----0-----0-----0-----0---0----0-----0-----0---|
|---0-----0-----0-----0---2----2-----0-----0-----|
|-3-----3-----2-----2----------------------------|

First solo
|-12b---12----------------------------|-------------------|
|----------15----15b-12-12------------|-------12----------|
|----------14b-------------14b-p12-14-|-12-14----12-------|
|-------------------------------------|-------------14-14-|
|-------------------------------------|-------------------|

|--------------------------------------------|
|--------------------------------------15b---|
|----12-14br-14br-14br--12-14-12-------------|
|-14------------------------------14---------|
|--------------------------------------------|
|--------------------------------------------|

|-----------------------------------|
|-15br-15br-15br--12-12--12----17b--|
|-----------------------------------|
|-----------------------------------|
|-----------------------------------|
|-----------------------------------|

It's just the beginnig: the first solo is not perfect and the
end should come later...


----------------------------------------------------------------
Version 2:
----------------------------------------------------------------


Tuned down half a step...

Intro: Clean Electric
|----------------------------|
|----------------------------| Play a basic E5 chord on the 5th string, 7th
|----------------------------| fret with minor variations as the intro builds
|-------------------9-9-9-9--| up. Other guitars distorted guitars come in
|--7-7-7-7-7-7-7--7-7-9-9-9--| also with an E5. Some played on the 6th string.
|----------------------------|


Verse: Dist.
Bb5 G5 E5 E5 / /
|-------------------------------|
|-------------------------------|
|-------------------9----------o| Repeat this with minor variations and
|--8----5----2------9--x--9-9--o| palm mutes during the last E5 chord...
|--8----5----2------7--x--7-7---|
|--6----3----0------------------|
I see your sister in her Sunday dress...

Chorus:
A5 G5 A5 Bb5 (NC) E5 (E5)
|----------------------------------------|---------|
|----------------------------------------|---------|
|--14--14--12--14--15--15-p-14-p-12------|--------o|
|--14--14--12--14--15---------------14---|--(14)--o|
|-----------------------------------14---|--(14)---|
|-----------------------------------12---|--(12)---|
It's so easy baby...

Bridge:
F#5 G5
|--------------------------|--------------------------|
|--------------------------|--------------------------|
|--------------------------|--------------------------|
|--------4-----4-----------|--------5-----5-----------|
|-----4-----4-----4-----4--|-----5-----5-----5-----5--| Play this figure once
|--2-----------------2-----|--3-----------------3-----| through, strum these
power chords the second
B5 A5 time, and end with an
|--------------------------|--------------------------| E5 as shown in Bridge
|--------------------------|--------------------------| Ending Fill.
|--------------------------|--------------------------|
|--------9-----9-----------|--------7-----7-----------|
|-----9-----9-----9-----9--|-----7-----7-----7-----7--|
|--7-----------------7-----|--5-----------------5-----|

Bridge Ending Fill:
E5
|-----------------------|
|-----------------------|
|------------9--9-9-9---| Just basically play an E5 for the two bars
|--9--9-9-9--9--9-9-9---| or whatever it is... listen to the CD...
|--7--7-7-7--7--7-7-7---|
|--0--0-0-0--0--0-0-0---|

Solos:
I'm not about to figure out solos. The solos are in G major and played over
the verse riff... The last solo, right before the end of the song ends on
something like this...
E5
|----------------------------------------|
|--8-------------------------------------|
|-----9--7---------------9---9-9--9--9--o|
|-----------9--8--7------9-x-9-9--9--9--o|
|--------------------10--7-x-7-7--7--7---|
|----------------------------------------|
slight P.M.--|




Тексты песен DM

Rambler's Top100

body {scrollbar-3dlight-color:black; scrollbar-arrow-color:#02221f; scrollbar-base-color:black; scrollbar-darkshadow-color:black; scrollbar-face-color:#8B4513; scrollbar-track-color:#02221f; scrollbar-shadow-color:black; scrollbar-highlight-color:black;}

 
 

Guns N' Roses 2008 © 2020Используются технологии uCoz