Меню сайта
////

Irs (intro) Тип: табулатура


----------------------------------------------------------------------------
IRS - Guns N' Roses
----------------------------------------------------------------------------
Tabbed by: Snarl Rox

Tuning: Down 1/2 step
Eb Ab Db Gb Bb Eb


This is the solo for the intro I don't know the chords behind it though sorry
e|-------------------------------------------------------------------------|
B|--12^----14^-----12^-12-10----12^-12-10----------------------------------|
G|-------------------------------------------------------------------------|
D|-------------------------------------------------------------------------|
A|-------------------------------------------------------------------------|
E|-------------------------------------------------------------------------|

Then some it goes heavy and power chords come in
e|-------------------------------------------------------------------------|
B|-------------------------------------------------------------------------|
G|-------------------------------------------------------------------------|
D|---5-5---7-7-7---8--8-8---7-7-7------------------------------------------|
A|---5-5---7-7-7---8--8-8---7-7-7------------------------------------------|
E|---3-3---5-5-5---6--6-6---5-5-5------------------------------------------|

Thats all i've got so far

Please rate and comment please!



Тексты песен DM

Rambler's Top100

body {scrollbar-3dlight-color:black; scrollbar-arrow-color:#02221f; scrollbar-base-color:black; scrollbar-darkshadow-color:black; scrollbar-face-color:#8B4513; scrollbar-track-color:#02221f; scrollbar-shadow-color:black; scrollbar-highlight-color:black;}

 
 

Guns N' Roses 2008 © 2021Используются технологии uCoz