Меню сайта
////

Illusion 8 (album)
 
 
8.PRETTY TIED UP

Riff A: (0:23)
eb|---------------------------|
Bb|-----15---15------15---15x-|
Gb|--14---------14------------|
Db|---------------------------|
Ab|---------------------------|
Eb|---------------------------|

Riff B: (1:26)
eb|--2------------------------|
Bb|------3---1---3~~~~~~~~b4--|
Gb|---------------------------|
Db|---------------------------|
Ab|---------------------------|
Eb|---------------------------|

Intro:
eb|---------------------------|
Bb|------2-3-5-3-2-2h3-2------|
Gb|--0h3-----------------3-2--|
Db|---------------------------|
Ab|---------------------------|
Eb|---------------------------|

Repeat as many times needed:
(this is played before and after the drums start)
eb|----------------------------------|
Bb|----------------------------------|
Gb|--2---0-2---0-2-0-2--0-2-2h3p2-0--|
Db|--0---0-0---0-0-0-0--0-0-0-----0--|
Ab|----------------------------------|
Eb|----------------------------------|

Verse:
Repeat for the first two lines.(twice for each one)
eb|----------------------------------|
Bb|----------------------------------|
Gb|--2---0-2---0-2-0-2--0-2-2h3p2-0--|
Db|--0---0-0---0-0-0-0--0-0-0-----0--|
Ab|----------------------------------|
Eb|----------------------------------|
I know this chick she lives down on Melrose
She ain't satisfied without some pain

G5 E5 D5
Friday night is goin' up inside her... again
G5 F#5 E5 D5
Well crack the whip 'Cause that bitch is just insane
I'm serious

Chorus:
A5 C5 D5
She's pretty tied up Hangin' upside down
A5 C5 D5
She's pretty tied up An you can ride her
A5 C5 D5
She's pretty tied up Hangin' upside down
F5 G5 D5
I can't tell you she's the right one (Oh no, oh no, oh no)

9.LOCOMOTIVE

intro
|-------------------|-------------------------|--------------------------|
|-------------------|-------------------------|--------------------------|
|-------------------|-------------------------|--------------------------|
|-------------------|-------------------------|--------------------------|
|-0-0---0-0---0-0---|-0---0-0---0-0-0---0-----|-0---0-0---0-0-0---0-0----|
|-----3-----3-----2-|---2-----2-------2---3-5-|---3-----3-------0-----2--|


|--------------------------|-------------------------|-------------------|
|--------------------------|-------------------------|-------------------|
|------------------------5-|-2-----------------------|-------------------|
|------------------------5-|-2-----------------------|-------------------|
|-0---0-0---0-0-0---0------|---0-0-0---0-0-0---0-----|0---0-0---0-0------|
|---2-----2-------2---3----|---------3-------3---0-2-|--2-----2-----3-2-0|


|-------------------|-----|-----|----------------------------------------|
|-------------------|-----|-----|----------------------------------------|
|-7h9--7h9-7---7--9-|-----|-----|-9--7h9---------------------------------|
|-7h9--7h9-7---7--9-|--s--|--s--|-9--7h9---5----5------------------------|
|-7----7---7---7--7-|-----|-----|-7--7-----5----5------------------------|
|-------------------|-----|-----|----------3----3------------------------|



One in a Million

Acoustic guitar..

[E-1] [E-2] [D] [C#] [C]
EADGBE EADGBE EADGBE EADGBE EADGBE
022100 x7990x x5770x x4660x x355xx


Beginning of song..

Strum

[E-1] (slide) [E-2] [D] [C#] (play twice)
| | | |||| / || | | |||| || | | |||| || | | ||||

[C]
|| | | |||||||||||||||
^
(slow distortion comes in)

second guitar...comes in after acoustic finishes.


-------|----------------------------------------------------------
-------|-2-2h3p2-2-2---1-1----------------------------------------
-5-5-5-|-2-2-----2-2-2-0-0-0-0-3p0---0-0-0-0-----4-0--------------
-5-5-5-|-2-2h4p2-2-2-2-2-2-2-2-2---2-0-0-0-0---3---0--------------
-3-3-3-|---------------3-3-3-3-3---3-2-2-2-2-2-------3---3---3/5--
-------|-----------------------------3-3-----3-------1-0-1-0-1/3--
(fill) (Main guitar riff)

^ ^ ^ ^ ^ ^ ^ ^ ^ ^
^(accented notes)


play it over and over until you're fingers bleed


(this is distorted guitar..light distortion)

10.SO FINE

Don't Know

11.ESTRANGED

|------------|-------13b----10-----|----------------13-----|-------------|
|----11--15b-|----11------------13-|-13--13-----13b----13b-|-13---(13)s--|
|-12---------|-12------------------|-----------------------|-------------|
|------------|---------------------|-----------------------|-------------|
|------------|---------------------|-----------------------|-------------|
|------------|---------------------|-----------------------|-------------|

G5 C5
|------------------|-------13b---10-----|-------------13----|
|-----11--15b-(15)-|----11----------13b-|-13-(13)-13b----13-|
|-s12--------------|-12-----------------|-------------------|
|------------------|--------------------|-------------------|
|------------------|--------------------|-------------------|
|------------------|--------------------|-------------------|

Bb5 C5 G5
|------------------------||---------13----|-----------------|------------|
|-13---13b15p11-13p11----||-11--13b----13-|-13------13--12b-|--(12)bbbb--|
|---------------------12-||---------------|-----------------|------------|
|------------------------||---------------|-----------------|------------|
|------------------------||---------------|-----------------|------------|
|------------------------||---------------|-----------------|------------|

Bb5 C5 G5
|---------------------|------------13----|--------------|------|---------|
|(12)-13p12--13b13p12-|-11----13b-----13-|---13--13-----|------|---------|
|---------------------|------------------|----------14b-|-(14)-|-(14)----|
|---------------------|------------------|--------------|------|---------|
|---------------------|------------------|--------------|------|---------|
|---------------------|------------------|--------------|------|---------|

Riff A
Eb5 F5 G5 C5 Eb5 F5
|----|--------------||----------------------|------------------------|
|-11-|-(11)---(11)s-||----------13s15-(15)s-|-------13s15-(15)-13p12-|
|----|--------------||-------12-------------|----12------------------|
|----|--------------||----12----------------|-10---------------------|
|----|--------------||-10-------------------|------------------------|
|----|--------------||----------------------|------------------------|

G5 Eb5 F5 G5
|-----------------------|------------------------|-----------------------|
|-13p12------(15)-(15)s-|-------13s15-(15)-13p12-|-13p12--------15-(15)--|
|-------12--------------|----12------------------|-------12--------------|
|----------12-----------|-10---------------------|----------12-----------|
|-----------------------|------------------------|-----------------------|
|-----------------------|------------------------|-----------------------|

(end Riff A)
Eb5 F5 G5 Eb5 F5 Gm F Eb G
|-------|------|------------||----|------|------|------|---------15--17b-|
|-15s13-|-13b--|-11---11p10-||----|------|------|------|-----------------|
|-------|------|------------||-12-|-(12)-|-(12)-|-(12)-|-(12)------------|
|-------|------|------------||----|------|------|------|-----------------|
|-------|------|------------||----|------|------|------|-----------------|
|-------|------|------------||----|------|------|------|-----------------|

F Eb G5 F5 G5
|-(17)-|---------------------|----------|------------|-------------------|
|------|-s13--11-10---11br10s|8------8--|------------|-------------------|
|------|---------------------|----------|-10b---(10)-|-(10)--------------|
|------|---------------------|----------|------------|-------------------|
|------|---------------------|----------|------------|-------------------|
|------|---------------------|----------|------------|-------------------|


F5 G5
And what more could you ask from me?

F5
How could you say that I never need-

G5 Eb5 D5
-ed you_ when you took everything

F5
said you took everything from me?

w/Riff A
G5 C5 Eb5 F5 G5 C5 Eb5 F5 G5 Eb5 F5
|------------|--------------|--------------|---------------|----|--------|
|------------|--------------|--------------|---------------|----|--------|
|------------|--------------|--------------|---------------|----|--------|
|------------|----1-1-1-1-3-|--5-----------|-----1-1-1-1-3-|-5--|--(5)---|
|-----5--6-5-|-3------------|------5---6-5-|--3------------|----|--------|
|-3----------|--------------|--------------|---------------|----|--------|

G5 Eb5 Gm F Eb Gm F
|-----|-----||-----|------|------|------|-----15--15s17-|-18----18s20-|
|-----|-----||-----|------|------|------|---------------|-------------|
|-----|-----||-12--|-(12)-|-(12)-|-(12)-|-(12)----------|-------------|
|-(5)-|-(5)-||-----|------|------|------|---------------|-------------|
|-----|-----||-----|------|------|------|---------------|-------------|
|-----|-----||-----|------|------|------|---------------|-------------|

Eb Gm Gm7 C
|-(20)---18--17-18--15-|-15--||-(15)-----|-(15)--|-------------|--------||
|----------------------|-----||----------|-------|-------------|--------||
|----------------------|-----||----------|-------|-------------|----12b-||
|----------------------|-----||----------|-------|-------------|--------||
|----------------------|-----||-------10-|-(10)--|-(10)--10-s3-|-(3)----||
|----------------------|-----||----------|-------|-------------|--------||

G5 C5
|-------------|-------13b--10-----|---------------13----|
|----11--15b--|----11---------13b-|-13--(13)-13b-----13-|
|-12----------|-12----------------|---------------------|
|-------------|-------------------|---------------------|
|-------------|-------------------|---------------------|
|-------------|-------------------|---------------------|

Bb5 C5
|-----------13------------------||-----------13----|---------------------|
|-13----13b-----13br(13)p11-----||-11---13b-----13-|-(13)---13---12b-----|
|----------------------------12-||-----------------|---------------------|
|-------------------------------||-----------------|---------------------|
|-------------------------------||-----------------|---------------------|
|-------------------------------||-----------------|---------------------|

G5 Bb5 C5
|----------|-----------------|------------13---|------------13--15-------|
|-(12)-----|-------13p12--12-|-11----13b----13-|--13---13b---------------|
|-------14b|-(14)------------|-----------------|-------------------------|
|----------|-----------------|-----------------|-------------------------|
|----------|---


Тексты песен DM

Rambler's Top100

body {scrollbar-3dlight-color:black; scrollbar-arrow-color:#02221f; scrollbar-base-color:black; scrollbar-darkshadow-color:black; scrollbar-face-color:#8B4513; scrollbar-track-color:#02221f; scrollbar-shadow-color:black; scrollbar-highlight-color:black;}


Guns N' Roses 2008 © 2020Используются технологии uCoz