Меню сайта
////

Illusion 6 (album)
 
 
7.BREAKDOWN

Intro (banjo, yes a BANJO!!...pretty neet):

E||--------------------|-----------------------------------|
B||--------------------|--------10----10h12----------------|
G||----------------7-7-|--9/11--------------11\9--7----9-7-|
D||--------------------|-----------------------------------|
A||--------------------|-----------------------------------|
E||--------------------|-----------------------------------|



-----------------------|-------------------------|---------------------|
-----------------------|-------------------------|---------------------|
-------------------7-9-|--9b-9----7-9-9b---9b--7-|--9------------------|
------9----------------|-------------------------|-----------------7-9-|
--10-------------------|-------------------------|---------------------|
-----------------------|-------------------------|---------------------|
**

G 1
---------------------------------|--10---10-----------------|
---------------------10--12------|------------12------------|
--7h9-7----9p7-9/11--------------|----------------12--------|
-----------------------------12--|--------------------------|
---------------------------------|--------------------------|
---------------------------------|--------------------------|

G 2
-------------------------------|-----------------------------|
---------------7--10-----------|-----7-10--------------------|
--7h9-7----9p7--------11\9--7--|--9b------9b9-7---9-7--------|
-------------------------------|----------------9-----0------|
-------------------------------|-----------------------------|
-------------------------------|-----------------------------|

G 1
---------------------------------------|-------------------|
--12-12-10-------10--------------------|-------------------|
-----------10h11----11\9-7-9b---9r-7---|--7----------------|
-------------------------------------9-|-------------------|
---------------------------------------|-------------------|
---------------------------------------|-------------------|

G 2
--------------------------------|-------------------|
-------------------7-10---------|-------------------|
--7h9p7--7--9-7-9b------9b9-7---|--7----------------|
------------------------------9-|-------------------|
--------------------------------|-------------------|
--------------------------------|-------------------|



SOLO (Played by Slash):


E||--------10----------10----------|--10------------10------10------|
B||--13b-------10--13b-----10--13b-|------13b-12b-------13------13--|
G||--------------------------------|----------12b-------------------|
D||--------------------------------|--------------------------------|
A||--------------------------------|--------------------------------|
E||--------------------------------|--------------------------------|



--12b---12--10--12------10--12--|--13--12--13p12p10--12~---10--12--|
--------------------13----------|----------------------------------|
--------------------------------|----------------------------------|
--------------------------------|----------------------------------|
--------------------------------|----------------------------------|
--------------------------------|----------------------------------|



--13b---13--12--13--12--13p-10----|--13------10--13p10-----10--------|
-------------------------------13-|------13------------13------13b---|
----------------------------------|----------------------------------|
----------------------------------|----------------------------------|
----------------------------------|----------------------------------|
----------------------------------|----------------------------------|



--10--------13--15--15r---13--|--15p-14--15b-------15p-13--|
------13b---------------------|----------------------------|
------------------------------|----------------------------|
------------------------------|----------------------------|
------------------------------|----------------------------|
------------------------------|----------------------------|



--15--15r---13----13------13h-14--|--0--17b-------------|
---------------15-----15----------|---------------------|
----------------------------------|---------------------|
----------------------------------|---------------------|
----------------------------------|---------------------|
----------------------------------|---------------------|



------17------------------|----17------------------------|
------------15----15--17b-|--------17r---15------15--18--|
--------------------------|------------------14----------|
--------------------------|------------------------------|
--------------------------|------------------------------|
--------------------------|------------------------------|



------------------------------------|--------10--------------------------------|
--17--18p-17p15-----15--15----------|--13b-------13--10--13p12p10----13--10-10-|
----------------15----------17\-12--|-----------------------------13-----------|
------------------------------------|------------------------------------------|
------------------------------------|------------------------------------------|
------------------------------------|------------------------------------------|



------------------10--------------10-----------|
--13p10----10---------13p10----10----13p10-----|
--------13----12b-----------12b------------12b-|
-----------------------------------------------|
-----------------------------------------------|
-----------------------------------------------|



--------------------------------------|----------------------------|
--------------------------------------|--12~-----10h12-10b---10b---|
--12--12--10-----12---10--------------|--12~-----10h12-10b---10b---|
--------------12----------12p-10------|----------------------------|
----------------------------------12--|----------------------------|
--------------------------------------|----------------------------|



--------------------|------------------|------------------|------------------|
--------------------|------------------|------------------|------------------|
--------------------|------------------|------------------|------------------|
--12~---------------|------------------|------------------|------------------|
--------------------|------------------|------------------|------------------|
--------------------|------------------|------------------|------------------|




------------------|--------10--10------10--10------|
------------------|--------10--10------10--10------|
------------------|--12b-----------12b---------12b-|
------------------|--------------------------------|
------------------|--------------------------------|
------------------|--------------------------------|



--10--10------10--10------10--10--|----------------------------------|
--10--10------10--10------10--10--|------10------10------10------10--|
----------12b---------12b---------|--12b-----12b-----12b-----12b-----|
----------------------------------|----------------------------------|
----------------------------------|----------------------------------|
----------------------------------|----------------------------------|



----------------------------------|----------------------------------|
------10------10------10------10--|--10------10--10------10--10------|
--12b-----12b-----12b-----12b-----|------12b---------12b---------12b-|
----------------------------------|----------------------------------|
----------------------------------|----------------------------------|
----------------------------------|----------------------------------|



----------------------------------|--------------10------------------|
--10--10------10--10------10--10--|------10--10------10--10------10--|
----------12b---------12b---------|--12b---------------------12b-----|
----------------------------------|----------------------------------|
----------------------------------|----------------------------------|
----------------------------------|----------------------------------|



--------------------------------|--------------------------------|
--10------10--10----------------|----------------10------10--10--|
------12b---------12r---10------|--10r-----------10------10--10--|
----------------------------12--|--------12--12------12----------|
--------------------------------|--------------------------------|
--------------------------------|--------------------------------|



------------------------------|----------------------------|
------------------------------|----------------------------|
--10r-------------------------|----------------------------|
--------12--12--12----10------|--10\-9------9\-7-----7\-5--|
--------------------------12--|---------10--------9--------|
------------------------------|----------------------------|



------------------------|----------10------10--10----------|
------------------------|--11/12-------12----------12--10--|
------------------------|----------------------------------|
--3--5--3-----3b--------|----------------------------------|
-----------5-------5----|----------------------------------|
------------------------|----------------------------------|



--13b---13b---10--15--10p-0--|--------20--20----------------|
-----------------------------|--20b-----------20----18------|
-----------------------------|--------------------------19--|
-----------------------------|------------------------------|
-----------------------------|------------------------------|
-----------------------------|------------------------------|



------20b---20b---20b---15r-|--15~-------15~-------|
--18------------------------|----------------------|
----------------------------|----------------------|
----------------------------|----------------------|
----------------------------|----------------------|
----------------------------|----------------------|


--15~---15--15~-----13------|--13--15--15p13---13--13b-10------|
------------------------15--|------------------------------13b-|
----------------------------|----------------------------------|
----------------------------|----------------------------------|
----------------------------|----------------------------------|
----------------------------|----------------------------------|



--10--10------------------------|----------------------------------------------|
----------13--10--12b---10------|--13-13-13-13-13-13-13--13p10-----13----10-13-|
------------------12b-------12--|-------------------------------13----13-------|
--------------------------------|----------------------------------------------|
--------------------------------|----------------------------------------------|
--------------------------------|----------------------------------------------|



------------------13-12--12b-12p10----12-|
--12-13-12-10----------------------13----|
--------------12-------------------------|
-----------------------------------------|
-----------------------------------------|
-----------------------------------------|



------10-12-10----10------10-----10----|
---13----------13----13b------x-----12-|
---------------------------------------|
---------------------------------------|
---------------------------------------|
---------------------------------------|



--------------------------------------------|----------------------------|
--13p10----10-13-----10h13p10----10-----10--|--13--10--13--13~-------13\-|
--------13--------13----------13----12------|----------------------------|
--------------------------------------------|----------------------------|
--------------------------------------------|----------------------------|
--------------------------------------------|----------------------------|



------------------------------|----------------------------------|
------10------10--10------10--|--10------10--10------10--10------|
----------10----------10------|------10----------10----------10--|
------------------------------|----------------------------------|
------------------------------|----------------------------------|
------------------------------|----------------------------------|



----------------------------------|-----------------------------------------|
--10--10------10--10------10------|--x--------10-13--10----10-13--10h13-10--|
----------10----------10------10--|--x-----10------------x------------------|
----------------------------------|-----12----------------------------------|
----------------------------------|-----------------------------------------|
----------------------------------|-----------------------------------------|



--------------------------------------------------|
------10--13--10--13--10------10--13--10--13--10--|
--10----------------------10----------------------|
--------------------------------------------------|
--------------------------------------------------|
--------------------------------------------------|



--------------------------------------------------|
------10--13--10--13--10------10--13--10--13--10--|
--10----------------------10----------------------|
--------------------------------------------------|
--------------------------------------------------|
--------------------------------------------------|



--------------------------------|------------------------|
------10------------------------|------------------------|
--10------12--10--12r--12r--10--|--12~-----------10--12b-|
--------------------------------|------------------------|
--------------------------------|------------------------|
--------------------------------|------------------------|



------------------------------|--------------------------|
------10--13------------------|--12----10--12b-----10----|
--------------12b-12--10--12--|--12----10--12b-----10----|
------------------------------|--------------------------|
------------------------------|--------------------------|
------------------------------|--------------------------|



---------------------------|--------------------------|
--12r---10------10---------|--12b-----10--------------|
------------12--10---------|--12b-----10------12p-10--|
----------------------x----|--------------------------|
---------------------------|--------------------------|
---------------------------|--------------------------|



----------------------------|----------------------------------|
--12r---10------10----12----|--12/-13--13--13--12/-13--13--12/-|
------------12--10----12----|--13/-14--14--14--13/-14--14--13/-|
----------------------------|----------------------------------|
----------------------------|----------------------------------|
----------------------------|----------------------------------|



----------------------------------|----------------------------------|
--13--13--12/-13--13--12/-13--13--|--12/-13--13--12/-13--13--13--12/-|
--14--14--13/-14--14--13/-14--14--|--13/-14--14--13/-14--14--14--13/-|
----------------------------------|----------------------------------|
----------------------------------|----------------------------------|
----------------------------------|----------------------------------|



----------------------------------|-----------------------------|
--13--13--12/-13--13--12/-13--13--|--12/-13--13--12/-13\--------|
--14--14--13/-14--14--13/-14--14--|--13/-14--14--13/-14\--------|
----------------------------------|-----------------------------|
----------------------------------|--------------------------5\-|
----------------------------------|-----------------------------|



Тексты песен DM

Rambler's Top100

body {scrollbar-3dlight-color:black; scrollbar-arrow-color:#02221f; scrollbar-base-color:black; scrollbar-darkshadow-color:black; scrollbar-face-color:#8B4513; scrollbar-track-color:#02221f; scrollbar-shadow-color:black; scrollbar-highlight-color:black;}

 
 

Guns N' Roses 2008 © 2020Используются технологии uCoz