Меню сайта
////

Illusion 5 (album)
 
 
The song goes like this

2x Rhythm Figure A
enter lyrics (play Rythm Figure A where you see D C G5)


D C G5
Yesterday there was so many things I was never told.
D C G5
Now that I'm startin' to learn I feel I'm growin' old.
D Cadd2 G5
'Cause yesterday's got nothin' for me. Old pictures that I'll always see.
D G5
Time just fades the pages in my book of memories.

(Insert Verse 2)

Chorus (underline indicates drag out the word,
C5 is just power chord on 3rd fret):
A B C5 G5
Ooh,____________yesterday's________ got nothin' for me.__________
A B C5 G5
Yesterday's________ooh,__ __________got nothin' for me.__________

Chords for solo are (if someone wants I can post tab of how I play the solo):
Bm G Bm G
Bm C#m D E

4.KNOCKIN' ON HEAVEN'S DOOR

G5 D C
-3---3--------------2-0-------|-----------------0--------------------|--------
-3-----3---3------3-----3---3-|----------1--------------1------------|--------
-0-------0------2---------2---|-0------0---0----------0---0-0------0-|--------
-0------------0---------------|-0-2----------2------2-------0-2------|--------
------------------------------|--H---3-----------------------H---3---|--------
-3----------------------------|--------------------------------------|--------

This is the picking for the first line. Again, the picking will vary
throughout the song.
G5 D Am
-3--------------2-------2-0-------|-0-----H-------0----------------------|
-3---3-------3--3-------3-------0-|-1----0-1-------------1---------------|
-0---0-----0----2----2-------2----|-2--2-----2---------2---2------0---0--|
-0---0-----0----0----0------------|-2----------2-----2-------0-2----2----|
----------------------------------|-0-------------------------H----------|
-3--------------------------------|--------------------------------------|


Song goes like this:

Intro:
Twice with picking G5 D C
Twice just power chords G5 D C

Verse 1 (with picking)
G5 D Am
Mamma take this badge from me
G5 D C
I can't use it anymore
G5 D Am
It's getting dark, too dark to see
G5 D C
Feels like I'm knockin' on heaven's door

Chorus (if you're really concerned about playing it like the
CD, listen to it for rhythm. But this song has been done by so
many people so differently that you might as well give it your own
feel.)
G5 D5 C5
Knock, knock, knockin' on heaven's door,
C5
Hey, hey, hey, hey, yeah
G5 D5 C5
Knock, knock, knockin' on heaven's door,
C5
(no lyrics)
G5 D5 C5
Ooh, knock, knock, knockin' on heaven's door
C5
Ooh yeah
G5 D5 C5
Knock, knock, knockin' on heaven's door
C5
Hey, hey, hey, hey, yeah

First Guitar Solo
G D C
------------------------------------------------------
----^^---P---------15--^------~~~~~~~~~~~~------------
-12-14-14-12-14-------14-12-12-------------------12---
------------------------------------------13/14-------
------------------------------------------------------
------------------------------------------------------
G D C
---------------P------------P--------P------------------15----
15/17---15---13-12-13/15--13-12---13--12----------12-13----13-
-------------------------------------------~~~~~~~------------
-----------------------------------------14-------------------
--------------------------------------------------------------
--------------------------------------------------------------
G ^^ D ^^ ^^ C
--~~~-------15-17--17--17--17--15-----------------------------
12---15/17----------------------------------------------------
--------------------------------------------------------------
--------------------------------------------------------------
--------------------------------------------------------------
--------------------------------------------------------------
G ^^ ^^ D C
--20-20-19-20--19-20--20-20-20---~~~~~----------------------------------
-------P-----------------------17------^^----^^-------------------------
---------------------------------------19-19-19-19-^-----^--------------
---------------------------------------------------19-19-19-19----------
---------------------------------------------------------------17--17---
------------------------------------------------------------------------


Additional lyrics:
Mama, put my guns in the ground
I can't shoot them anymore
That cold black cloud is comin' down
Feels like I'm knockin' on heaven's door

Basically there are lots of "knockin' on heaven's door"s throughout the rest




This is one of GUNS N' ROSES best song if you ask me.
This is the tabs of the full song...this again was completed with a friend..!

P.S. Tune your guitar down half a step.


Riff 1:-used in intro and the verses.

E|--3----3----------0---------------0--------------|
B|--3-----3-3--3---3-3-----------1---1--1----------|
G|--0------0---2--2---2-----------0---0--0------0--|
D|--X----------0-------0--0h2-2----2-------0h2-2---|
A|--2---------------------0h3--------------0h3-----|
E|--3----------------------------------------------|

E|-------3-----------0-----------------------||
B|--------3-3-------3-3------1----1--1-1-----||
G|--0------0---0h2-2---2-------0---0--0-0----||
D|--x----------0--------0---2---2---2----2---||
A|--2---------------------3------3--------3--||
E|--3----------------------------------------||


Riff 2:-used in intro and the choruses.

G D C C
E|-----|-----|-----|-----|
B|-----|-----|-----|-----|
G|--4--|--7--|--5--|--5--|
D|--5--|--7--|--5--|--5--|
A|--5--|--5--|--3--|--3--|
E|--3--|-----|-----|-----|


Solo 1:

E|-------------------------------------------------------|
B|-----------------15-------------------------15/17--15--|
G|--12-14brp12-14-----14br-1212~~~---------12------------|
D|--------------------------------------/14--------------|
A|-------------------------------------------------------|
E|-------------------------------------------------------|

E|----------------------------------------15----------15-|
B|-13p12-13/15---13p12-13---12--------1213--1312---/17---|
G|-------------------------------------------------------|
D|----------------------------14-------------------------|
A|-------------------------------------------------------|
E|-------------------------------------------------------|

E|-17br17---17br17br15-------22--20192019-22--20-2020----|
B|---------------------------------------------------17--|
G|-------------------------------------------------------|
D|-------------------------------------------------------|
A|-------------------------------------------------------|
E|-------------------------------------------------------|

E|--------------------15--||
B|--15brbr----------------||
G|----------14brbr--12----||
D|------------------------||
A|------------------------||
E|------------------------||


Solo 2:

E|-------------------------------------------------------|
B|--19b~~~~~~~r-19---19brp17-19-1717----20-17--20-17br---|
G|-------------------------------------------------------|
D|-------------------------------------------------------|
A|-------------------------------------------------------|
E|-------------------------------------------------------|

E|----------------------------------------16---18b-18p16-|
B|-1517--1517--------1517---------------13--16-----------|
G|-----------------------------------/13-----------------|
D|-----17----19br1719----19br19br17----------------------|
A|-------------------------------------------------------|
E|-------------------------------------------------------|

E|-1618P161620192022b--20192022b--20192022b-22b22b-------|
B|------------------------------------------------2022b--|
G|-------------------------------------------------------|
D|-------------------------------------------------------|
A|-------------------------------------------------------|
E|-------------------------------------------------------|

E|-------------------------------------------------------|
B|--2022br-202222b-202220--20~~---2019----19br-17191717--|
G|-------------------------------------------------------|
D|-------------------------------------------------------|
A|-------------------------------------------------------|
E|-------------------------------------------------------|

E|-------------------------------------------------------|
B|-2017--17~~15~~12~~~~~~--------------------------------|
G|------------------------12~--11~---11br-9~---7---5/4---|
D|----------------------------------------------------5--|
A|-------------------------------------------------------|
E|-------------------------------------------------------|

5.GET IN THE RING

Introduction

E|---------------|-----------------------------------|----------------
B|---------------|-----------------------------------|----------------
G|---------------|-----------------------------------|----------------
D|---------------|----------------12---15---15pfbr---|----------------
A|---------------|-13~~~~~~~~-13---------------------|-15hbr---15hbr--
E|---------------|-----------------------------------|----------------

E|-----------|--------------------------------|-----------------------------
B|-----------|--------------------------------|-----------------------------
G|-----------|--------------------------------|-----------------------------
D|-----------|--------------------------------|------------------13---13pfb-
A|-13~~~~~~~~|(13)~~~~~~~~--------13-13---15--|-13~~~~~~-13---15------------
E|-----------|--------------13h15-------------|-----------------------------

E|-------------------------------|-------------------------|--------------
B|-------------------------------|-------------------------|--------------
G|---------------------17hb(17)r-|-------------------------|--------------
D|-(13)----Rb--------------------|-------------------------|--------------
A|---------------15hbr-----------|---------------15-----13-|-13~~~~-15/17-
E|-------------------------------|------------x-----13-----|--------------

E|---------------------|-----------------------------------------------
B|---------------------|----------------------15-18---18pfb�(18)---rb--
G|-------------17------|--------15~~~~~-15-----------------------------
D|-15-17-15-17------17-|-----------------------------------------------
A|---------------------|-----------------------------------------------
E|---------------------|-----------------------------------------------

E|---------------------|-----------------------------------------------
B|---------------------|-----15-18-16-15-16----15------15------15------
G|-15phbr--13-15gfb(15)|--------------------------17fb----17fb----17fb-
D|---------------------|-----------------------------------------------
A|---------------------|-----------------------------------------------
E|---------------------|-----------------------------------------------

E|------------------------------|---------------------------------------18----------
B|-15------15-------------------|----------------------15---18-----18fb----(18)rb-15
G|----17fb----17fbrp15---17-----|--15~~~~~~~~~~-------------------------------------
D|---------------------------17-|----------------17---------------------------------
A|------------------------------|---------------------------------------------------
E|------------------------------|---------------------------------------------------

E|------------|-----------------|----------------------|
B|-18----18---|-18--------------|-18-------------------|
G|-17fb--17fb-|-17--------------|-17-------------------|
D|------------|-----------------|-------------x/x\-----|
A|------------|-----------------|-------------x/x\-----|
E|------------|-----------------|-----------Pick Slide-|

E|----------------|-------------------|-----6-----------------|------------------
B|----------------|---------------9fb-|-(9)----9-6-8hbrp6---6-|---------------11-
G|----------------|-------------------|-------------------8---|-7---8---7-8-7----
D|----------------|-------------------|-----------------------|---8---8----------
A|----------------|-------------------|-----------------------|------------------
E|----------------|-------------------|-----------------------|------------------

E|---------------------------------------8fb---|-(8)---8-6---8fb---6---|-----6-----
B|-(11)~~~~~~~~~~~~~~(11)~~~~~~-(11)\8-6-------|---------------------6-|-9fb---9-6-
G|---------------------------------------------|-----------------------|-----------
D|---------------------------------------------|-----------------------|-----------
A|---------------------------------------------|-----------------------|-----------
E|---------------------------------------------|-----------------------|-----------

E|--------------||
B|--------------||
G|-8fbrp6-------||
D|--------8-8---||
A|--------------||
E|--------------||

1st Verse: Rhythm Fig1 & 1A 3 � times

E|------------------|-------------------------|----------------
B|------------------|-------------------------|----------------
G|------------------|-------------------------|----------------
D|------------------|-----------------------8-|-(8)-8---10-8---
A|-8------8--8�(8)\3|-(3)-------3---3-------6-|-(6)-6---6--6---
E|-6------6--6�(6)\1|-(1)-------1---1---------|----------------

6.SHOTGUN BLUES

Don't Know


Тексты песен DM

Rambler's Top100

body {scrollbar-3dlight-color:black; scrollbar-arrow-color:#02221f; scrollbar-base-color:black; scrollbar-darkshadow-color:black; scrollbar-face-color:#8B4513; scrollbar-track-color:#02221f; scrollbar-shadow-color:black; scrollbar-highlight-color:black;}


Guns N' Roses 2008 © 2020Используются технологии uCoz