Меню сайта
////

Illusion 1 (album)
 
 
Subject: guns n' roses tabs
Date: Sun, 26 Oct 1997 17:59:35 -0500
From: "David W. Iggulden"

Live and let die
Guns N' Roses (originally recorded by Paul McCartney)
Use your illusion I

Tabbed by: Fernando Alpuche
fam632@www.interacces.com.mx

Tuned half step down

Intro (Piano arr. for guitar):
G Bm C D D(b9)
e:|-3------------------------------|--0--------------2--------2------|
B:|-3----3----------------3--------|---------------------3----4------|
G:|-4----4-------------22------2-0-|--------1--------------------2---|
D:|-5----5----------4--------------|-----0--0--0-0-------------------|
A:|-5---------5-----2--------------|--3-----2--------0---------------|
E:|-3------------------------------|---------------------------------|

G Bm C D D(b9)
e:|-3---3--------------------------|-------0--------2---------------------|
B:|-3-----------0----------3-------|-------------0--------3----4----------|
G:|-0--------0----------2--2----2--|----0-----0--------2-----2----2--2--0-|
D:|-0----------------4-----4-------|----------------0---------------------|
A:|------------------2-------------|--3-----------------------------------|
E:|-3------------------------------|--------------------------------------|

G Bm
e:|-3------3---------------------2----------|
B:|-3------3-------0-----------3---------0--|
G:|-0------0----0-----------2---------2-----|
D:|-0------0-----------4--------------------|
A:|--------------------2--------------------|
E:|-3------3--------------------------------|

C A D
e:|--------0------------------0----|-2-------2------------|
B:|--------1-------1-0-------------|-3-----3--------------|
G:|----0-------0--------2--2-----2-|-2---2----------------|
D:|---------------------2----------|-0-----------0--------|
A:|-3-------------------0----------|----------------------|
E:|--------------------------------|----------------------|

D E F ...End Intro
e:|-0---0--1----0--0--1----|
B:|-3-----------3----------|
G:|-2-----------2----------|
D:|-0-----------0----------|
A:|------------------------|
E:|------------------------|

G Bm C
When you were young and your heart___

C D D(b9)
___was an o___pen book,_____

G Bm C
you used to say live and let live___

C D D(b9)
You know you did, you know you did,

G
___you know you did____

G Bm
But if this ev___er chan__in' world._____

C A
___in which we live in___

A D D E F
makes you___give in and__cry,_____

w/Distortion G5 C5 G(b5) G5v
e:|-------------------------------------------------------------|
B:|-------------------------------------------------------------|
G:|---------------------------5---------6-----------7-----------|
D:|-----------------5---------5---------5-----------5-----------|
A:|-----------------5---x-x---3---x-x---4----x-x----5---x-x-----|
E:|-20\----3p0------3---x-x---3---x-x---3----x-x----3---x-x-----|

G5
_______say, live and let die,____

C5 ... G(b5) ... G5v

G5
________ live and let die.__

C5 ... G(b5) ... G5v

* Twice ................................
e:|-------------------------|----------------|
B:|--------15--(15)\--------|-10-------------|
G:|--12-14-15--(15)\---7--9-|-10-------5-3-0-|
D:|--12-14-15--(15)\---7--9-|-10-------5-3-0-|
A:|-------------------------|----------------|
E:|-------------------------|----------------|

* Twice ................................
e:|-------------------------|----------------|
B:|--------15--(15)\--------|-10-------------|
G:|--12-14-15--(15)\---7--9-|-10----5-----3--|
D:|--12-14-15--(15)\---7--9-|-10----5-----3--|
A:|-------------------------|----------------|
E:|-------------------------|----------------|
* Synth. sound effects..................

** Half time Reggae feel **
C........................... G..................... [P.M.]
e:|-------------------------------|[P.M.]--------------3-3---3--3--|
B:|-5-x-x-x-5-5-x---5---5---x-x-5-|-3-3-x-x-x-x-x-x----3-3---3--3--|
G:|-5-x-x-x-5-5-x---5---5---x-x-5-|-4-4-x-x-x-x-x-x----------------|
D:|-5-x-x-x-5-5-x---5---5---x-x-5-|-5-5-x-x-x-x-x-x----------------|
A:|-------------------------------|--------------------------------|
E:|-------------------------------|--------------------------------|

D.......................... (E5)........... (F5).........
e:|[P.M.]----10-[......P.M......]|---------------------------------|
B:|-7-7--x-x-10--12--10----------|---------------------------------|
G:|-7-7--x-x-----12--10----------|--9----------x--x--10------(10)--|
D:|-7-7--x-x------------12---7-7-|--9----------x--x--10------(10)--|
A:|------------------------------|--7----------x--x---8------( 8)--|
E:|------------------------------|---------------------------------|

** Half time Reggae feel **

C G
What does it mat - ter to ya,_____

G
When you got a job__ to do_____

D D
ya got to do it well.__________

E5 F5
You got to give the oth-er fel-la hell._____

Fill w/harmonizer
e:|----------------------------------|-----------------------------|
B:|-----------------15---17fb---(17)-|---15p13-12hb----------------|
G:|--14hb-fb-------------------------|-----------------14fb---(14)-|
D:|----------------------------------|-----------------------------|
A:|----------------------------------|-----------------------------|
E:|----------------------------------|-----------------------------|

e:|-------------------------------|
B:|-------------------------------|
G:|-------------------------------|
D:|--12-------------(12)~~~~~~----|
A:|-------------------------------|
E:|-------------------------------|

G Bm C
Used to say live and let live___

C D D(b9)
You know you did, you know you did,

G
___you know you did.__

G Bm
But if this ev____er chan__in' world._____

C A
___in which we live in___

A D D E F
makes you__give in and__cry,_____

w/Distortion
e:|------------15-17-18~~-------|-------------------------|
B:|-----------------------15-17-|-18~~--------------------|
G:|-----------------------------|---------15fb-(15)--12---|
D:|-----------------------------|-------------------------|
A:|-----------------------------|-------------------------|
E:|-20\--3p0--------------------|-------------------------|

e:|-15-17-18~~-----------|--------------------------------|
B:|------------15-17-18--|--------------------------------|
G:|----------------------|-15fb---15~~--------------------|
D:|----------------------|--------------------------------|
A:|----------------------|--------------------------------|
E:|----------------------|--------------------------------|

e:|-15-17-18~~--------|-----------------------------------|
B:|------------15-17--|-18~~------------------------------|
G:|-------------------|--------15fb--(15)--12-------------|
D:|-------------------|-----------------------------------|
A:|-------------------|-----------------------------------|
E:|-------------------|-----------------------------------|

e:|-15-17-18~~-----------|--18fb---18~~-------------------|
B:|------------15-17-18--|--------------------------------|
G:|----------------------|----------------------The-------|
D:|----------------------|----------------------End.....--|
A:|----------------------|--------------------------------|
E:|----------------------|--------------------------------|

4.DON'T CRY

Intro: Clean Electric
Am Dm G
|-----|--------0-------------1---------------3-----------------------|
|-----|----------1---------3---3---------------3---------------------|
|-----|------2-----2-----2-------2---------0-----0-------0-----0-----|
|-----|----2---------0-0-----------------0-------------0-----0-------|
|-----|--0-------------------------0---2-----------0-3-----2-----3-2-|
|--3--|------------------------------3-------------------------------|

Am Dm G
|-------0-------------1--------------------------|
|---------1---------3---3------------------------|
|-----2-----2-----2-------2---------0------------|
|---2---------0-0-----------------0-----------2--|
|-0-------------------------0---2-------------0--|
|-----------------------------3---------2-3-4----|

Verse: Clean Electric
Rhy. Fig. 1 End Rhy. Fig. 1
Am Dm G *
|-------0-------------1---------------3-------|-----------------|
|---------1---------3---3---------------3-----|-----------------|
|-----2-----2-----2-------2---------0-----0---|-----0-----0-----|
|---2---------0-0-----------------0-----------|---0-----0-------|
|-0-------------------------0---2-----------0-|-3-----2-----3-2-|
|-----------------------------3---------------|-----------------|

* Last time before 2nd and 3rd chorus replace
remainder of Rhy. Fig. 1 with Rhy. Fill 1.

Rhy. Fill 1 End Rhy. Fill 1
C G/B Am G
|----------------------------------|
|-------1-------3-------1----------|
|-----0-------0-------2---------0--|
|---2-------0-------2---------0----|
|-3-------2-------0---------2------|
|-------------------------3--------|


(w/Rhy. Fig. 1)
Talk to me softly
There's something in your eyes
Don't hang your head in sorrow
And please don't cry
I know how you feel inside I've
I've been there before
Somethin's changin' inside you
And Don't you know


Chorus: Clean Electric
F G Am
|----------------------------------------|------------------0--|--------------------|
|--1-------1-----1----------3-3----------|--------0-h-1--------|--1-----0-h-1-------|
|--0-h-2---0-h-2-0-h-2------0-0----------|------2-------2------|----2---------2-p-0-|
|--3-------3-----3--------0--------------|----2-----------2----|------2-------------|
|----------------------------------------|--0------------------|--------------------|
|-----------------------3----------------|---------------------|--------------------|

F G Am F G
|--------1--------------|------------0--0--------------|------1-----------3---|
|------1---1-------3----|------0----------3--3-1-------|----1---1-----3-3---3-|
|----2-------2---0------|----2-----2-------------2-----|--2-------2---0-------|
|--3-----------0-----0--|--------2-----------------2---|--3-----------0-------|
|-----------------------|--0---------------------------|----------------------|
|-----------------------|------------------------------|----------------------|

C** G/B Am G F G Am
|-----------------------------------|------1--------3-------|--0-------|
|--------1-------1-------1----------|----1---1--3-3---3-----|--1-------|
|------0-------0-------2---------0--|--2--------0-----------|--2----2--|
|----2-------0-------2---------0----|--3--------0-----------|--2--2----|
|--3-------2-------0---------2------|-----------------------|--0-------|
|--------------------------3--------|-----------------------|----------|

Repeat Verse w/Additional Lyrics: Verse: 2
Repeat Chorus w/Rhy. Fill 2 at **

Rhy. Fill 2 End Rhy. Fill 2
C5 G5 A5 G5 F5 G5 A5
|-----------|------------|-----------------|
|-----------|------------|-----------------|
|--5--------|------------|-----------------|
|--5----5---|---7----5---|---3----5----7---|
|--3----5---|---7----5---|---3----5----7---|
|-------3---|---5----3---|---1----3----5---|

Chord progression over the solo:
D5 F5 | G5 A5G5 | F5 G5 | A5 G5|
/ . / . / . / . | / . / . / . / . | / . / . / . / . | / . / . / . / . |

F5 G5 | E5 F5 | F5 G5 | A5
/ . / . / . / . | / . / . / . / . | / . / . / . / . | /...............|

Solo:
|---------------------------------------------------------------------|
|--------------------------------------------------8~~-----------8-8--|
|------------7^rp5--7-(7)~~~--r7p5--7^-------r7p5--7^-----r7----5^\/\-|
|-7~~~~~~~~~----------------------------------------------------------|
|---------------------------------------------------------------------|
|---------------------------------------------------------------------|

|---------------------------------------------------------------------|
|-----------------------------------------13^(2 steps)--13^(1/4 step)-|
|-7/9-9/10--------------------------12h14-----------------------------|
|--------------------------10h12-12/14--------------------------------|
|-5/7--7/8--8h10-10/12------------------------------------------------|
|---------------------------------------------------------------------|

|--------------------------------------------------------------------------|
|--------------------------------------------------------------------------|
|-14~~~----------------12--------------------------------------------------|
|-----------14-13h14p13p12-13p12-10-12p10---------10^----------------------|
|----------------------------------------------------12p10---12p10-12-(12)-|
|--------------------------------------------------------------------------|

|-----15-15-15-------------15-15-----------------------------------------------|
|-15^----------r15p13--15^-------r15--13-12---------12/15-13-12-13-------------|
|---------------------------------------------------------13-------------14----|
|-------------------------------------------------------------14------------15-|
|------------------------------------------------------------------------------|
|------------------------------------------------------------------------------|

|-13----------------------------------------------5-----------------------------|
|----13--15^--15~~~--r15p13--8^-----8-5--------x-x--8---------------5^r^(5)r--5-|
|-----------------------------------------------------r7p5--x-x--7^--(7)-----r7-|
|-------------------------------------------------------------------------------|
|-------------------------------------------------------------------------------|
|-------------------------------------------------------------------------------|

Verse:
trem. bar
Feedback---------------------------------------| Harm
\\\\\3.5 8va
|---------------------------------|---------------------------------|
|---------5-b-6---------r-5-b-6---|-------r-5-----------5-----------|
|-(7)-----------------------------|---------------------------------|
|---------------------------------|---------------------------------|
|---------------------------------|---------------------------------|
|---------------------------------|---------------------------------|
and please remem-ber that I never lied


Chorus 3: Lead Part

Double regular chorus with power chords, or 5 (ie: F5, G5, A5, etc)

F G Am F G
|--12~~~--12--12--12--12-------------------------------|-------------------|------------|
|-------------------------13---------------------------|--15-p-13----------|------------|
|------------------------------------------------------|-----------14~~~~--|------------|
|------------------------------------------------------|-------------------|------------|
|------------------------------------------------------|-------------------|------------|
|------------------------------------------------------|-------------------|------------|

Am F G
|--15b-------r15--15--------------------------------------|-------------------|-------------|
|---------------------17--15------------------------------|--15--p--13~~~~~~--|--15--13--15-|
|---------------------------------------------------------|-------------------|-------------|
|---------------------------------------------------------|-------------------|-------------|
|---------------------------------------------------------|-------------------|-------------|
|---------------------------------------------------------|-------------------|-------------|

C G/B Am G F
|------------------------------|------------------------------|
|--15----15-----12-----12------|------------------------------|
|------------------------------|--14~~~~~~--------------------|
|------------------------------|------------------------------|
|------------------------------|------------------------------|
|------------------------------|------------------------------|

Outro Chorus: Distorted Guitar

F5 G5
And don't you cry...

F5 G5
Don't you ever cry...

F5 G5 *** (E5) (F5)
Don't you cry tonight... baby maybe someday...

F5 G5
Don't you cry...

F5 G5
Don't you ever cry...

F5 G5 C5
Don't you cry... TONIGHT... ****


*** Fill in with Rhy. Fill 3

Rhy. Fill 3 End Rhy. Fill 3
E5 F5
E|--------------------------|--------------------------|
B|--------------------------|--------------------------|
G|--------------------------|--------------------------|
D|--2--2--2--2--2--2--2--2--|--3--3--3--3--3--3--3--3--|
A|--2--2--2--2--2--2--2--2--|--3--3--3--3--3--3--3--3--|
E|--0--0--0--0--0--0--0--0--|--1--1--1--1--1--1--1--1--|
baby... maybe... someday...

**** Play Riff 1

Riff 1
E|-12--12--------------------------12--12----------13--------------|
B|---------13------13------13--------------13----------------sl----|
G|---------------------------------------------------------12-/14--|
D|-----------------------------------------------------------------|
A|-----------------------------------------------------------------|
E|-----------------------------------------------------------------|

E|-13--------------12----------10----------8-----------------------|
B|-----------------------------------------------------------------|
G|---------12--------------10----------9---------5h7-------5-------|
D|-----------------------------------------------------------------|
A|-----------------------------------------------------------------|
E|-----------------------------------------------------------------|

E|-----------------------------------------------------------------|
B|-----------------------------------------------------------------|
G|---------5-------------------------------------------------------|
D|-5-h-7-----------------------------------------------------------|
A|---------------6h7-----------------------------------------------|
E|-----------------------------------------------------------------| End Riff 1

5.PERFECT CRIME

Gtr I (Eb Ab Db Gb Bb Eb) - Slash
gtr II (") - Izzy

4/4

intro and for verse 1 and 2.
Gtr I


|--------------------------|
|-8-----5------------------|
|-8-7-7-5------------------| X 2
|-----7---5-7-7-7-5h7-7----|
|---------0-0-0-0-0-0-0----|
|--------------------------|

gtr II

|-----------------------------|
|-----------------------------|
|-8p-7-5-5--------------------|
|----------7-5-7-7-7-5-7-0----| X 2
|-----------------------------|
|-----------------------------|

1st chorus:
C5 Bb5 G5 A5 G5 Bb G5 A5 G5 C5 Bb5 G5
per - fect crime god *** it it's a per - fect crime

A5 G5 Bb G5 A5 G5 C5 Bb5 G5 A5 G5 Bb G5 A5 G5 C5 Bb5 G5
moth-er ***-er it's a per - fect crime i said it's per - fect

[bridge]

2nd chorus:
C5 Bb5 G5 A5 G5 Bb G5 A5 G5 C5 Bb5 G5 A5 G5 Bb G5 A5 G5 C5
bad side of me don't *** wit'da bad side o' me stay a - way from the bad

Bb5 G5 A5 G5 Bb G5 A5 G5 C5 Bb5 F5
side o' me don't *** wit' da bad side

Solo:

|------------------------------------------------------------------------------------------|
|-20b22r=20--17-20-17----17-20-17S16-22-16-24-16-17-20-17----17-20-17----17-20-17----17-19-|
|---------------------20----------------------------------20----------20----------20-------|
|------------------------------------------------------------------------------------------|
|------------------------------------------------------------------------------------------|
|------------------------------------------------------------------------------------------|

|20-17-----------20-----------------------20-17----20-17-19-20-19-17----19-19-17-19-17----|
|------17-20-17------17-20-17----17-20-17-------19-------------------20----------------20-|
|-----------------------------20----------------------------------------------------------|
|-----------------------------------------------------------------------------------------|
|-----------------------------------------------------------------------------------------|
|-----------------------------------------------------------------------------------------|

|17------------------------------17-------------------------------------------------------|
|---20-19-20-19-17------------17----17-15----17-15----------------------------------------|
|------------------19-17-16---------------16-------16-14-16-16----16-----------------14---|
|--------------------------------------------------------------14----15-14--------16----16|
|--------------------------------------------------------------------------17--17---------|
|-----------------------------------------------------------------------------------------|

|-----------------------------------------------------14-----17-17----|
|----------15-------------17-15----17----15-----17--------------------|
|-15----------16-14-16-14-------16----16-----16----16----16-----------|
|----16-14------------------------------------------------------------|
|---------------------------------------------------------------------|
|---------------------------------------------------------------------|

[3rd verse]

3rd chorus:
C5 Bb5 G5 A5 G5 Bb G5 A5 G5 C5
won't ya let me be moth-er ***-er just let me be

A5 G5 Bb G5 A5 G5 C5 Bb5 G5 A5 G5 C5 G5
god *** it better let me be don't ya know ya better let me be

C5 Bb5 G5 A5 G5 Bb G5 A5 G5 C5 Bb5 G5
per - fect crime god *** it it's a per - fect crime

A5 G5 Bb G5 A5 G5 C5 Bb5 G5 A5 G5 Bb G5 A5 G5 C5 Bb5 G5
moth-er ***-er it's a per - fect crime don't cha know it's a per - fect crime

6.YOU AIN'T THE FIRST

tune your guitar down a half step

------------------------|----------------------|---------0----0---2----|
------------12-----14---|--9----------2----0---|-2---------------------|
--13--------------------|----------------------|-----------------------|
------------------------|----------------------|-----------------------|
------------------------|----------------------|-----------------------|
------------------------|----------------------|-----------------------|
I tried so hard just to get through to you

A E A
--0---------------------|----------------------|-----------------------|
------------------------|-----------12----14---|--9-----------2----0---|
------------------------|---13-----------------|-----------------------|
------------------------|----------------------|-----------------------|
------------------------|----------------------|-----------------------|
------------------------|----------------------|-----------------------|
But your head's so far from the


E A E
-----------0------2-----|-0--------------------|---9---7---------------|
---2--------------------|----------------------|---------9---7--9---7--|
------------------------|----------------------|-----------------------|
------------------------|----------------------|-----------------------|
------------------------|----------------------|-----------------------|
------------------------|----------------------|-----------------------|

real - ness of truth Was it just a come on
A E
-------------0----------|--------0------2------|--0----------------9---|
---9---7----------------|--2-------------------|-----------------------|
------------------------|----------------------|-----------------------|
------------------------|----------------------|-----------------------|
------------------------|----------------------|-----------------------|
------------------------|----------------------|-----------------------|

in the dark, wasn't meant to last long I

E A E
--9---7-----------------|-------------0--------|----------0------2-----|
--------9---7--9---7----|---9---7--------------|--2--------------------|
------------------------|----------------------|-----------------------|
------------------------|----------------------|-----------------------|
------------------------|----------------------|-----------------------|
------------------------|----------------------|-----------------------|

think you're worn your welcome, honey l'll just sing you a -

A
--0---------------------|-------------2-4------|--------0--------------|
------------------------|----------------------|-----------------------|
------------------------|----------------------|-----------------------|
------------------------|----------------------|-----------------------|
------------------------|----------------------|-----------------------|
------------------------|----------------------|-----------------------|

long As l sing you this song




-------------------------|--12-----------------|-----------------------|
----------------11---12--|---------------------|--11--12---11------10--|
-------------------------|---------------------|-----------------------|
-------------------------|---------------------|-----------------------|
-------------------------|---------------------|-----------------------|
-------------------------|---------------------|-----------------------|

One, Two, Three, One,

-------------------------|--0------------------|-----------------------|
---------14----12--------|---------------------|--14--12---------------|
--------------------13---|---------------------|-------------------11--|
-------------------------|---------------------|-----------------------|
-------------------------|---------------------|-----------------------|
-------------------------|---------------------|-----------------------|


-------------------------|
-------------------------|
--13---------------------|
-------------------------|
-------------------------|
-------------------------|

Two Three and So,

Chorus

E G# A^ B
Good-bye to you, girl. So long, fare-well

E G# A^ B
I cant hear ya cryin' Your jivin's been hell

E G# A^ E
So Look for me Walkin' down your street at night

G# A^ B
I'll be in with another deep down in - side

A G# F#m E
Deep down in - side

7.BAD OBSESSION

tune your guitar down a half step

|-------------------------|------------------3-|----------------------|
|-------------------------|---3--------------3-|----------------------|
|---------------12-12-(12)|---0-------2--0-----|---x--3--0--2--0--xx--|
|---------------12-12-(12)|-0-0--3-0--2--0-----|---x--3--0--2--0--xx--|
|-------------------------|--------------------|----------------------|
|-------------------------|--------------------|----------------------|

p p dim. (Gtr. 1 out)
|--------------------3----|-(3)---------------------|-(3)----------------|----------------------|
|--------------------3----|-(3)---------------------|-(3)----------------|----------------------|
|--x--3-----2--0--3-------|-------------------------|--------------------|----------------------|
|--x--3--0--2--0----------|-------------------------|--------------------|----------------------|
|-------(0)---------------|-------------------------|--------------------|----------------------|
|-------------------------|-------------------------|--------------------|----------------------|

*Gtr.2 (w\slide) Slash

vol. off < mf
~~~~~~~~~~~~~~~~~~~~~~~~~~~~
|-------------------------|-------------------------|--------------------|----------------------|
|-------------------------|-------------------------|-0----------------0-|(0)-//3\\2--0-/3---0--|
|---------------12--------|-------------------------|-0-/-3--2--0-/-3--0-|(0)-//3\\2--0-/3---0--|
|---------------12--------|-(12)-----------(12)-\\\-|-0-/-3--2--0-/-3--0-|(0)-//3\\2--0-/3---0--|
|-------------------------|-(12)-----------(12)-\\\-|-0-/-3--2--0-/-3--0-|(0)-//3\\2--0-/3---0--|
|-------------------------|-------------------------|--------------------|----------------------|

steady gliss. ~~~~~~~~~~~~~~~~~~
|-------------------------|-------------------------|--------------------|----------------------|
|(0)----------------------|----------------------12-|(12)-------------11/|/12---------------11//|
|(0)-------/3--3\2--0--/2/|/3--(3)///(7)-//------12-|(12)----------------|-----12--12--(12)-11//|
|(0)-------/3--3\2--0--/2/|/3--(3)///(7)-//------12-|(12)----------------|----------------------|
|(0)----------------------|-------------------------|--------------------|----------------------|
|-------------------------|-------------------------|--------------------|----------------------|

Gtr. 1 ^ p p p
|-------------3--3--3--3--|-3-----------------------|---------------------3|
|-------------3--3--3--3--|-3--5--------------------|---------------------3|
|-------------------------|----5--3--0-----0--------|(0)--3--0--2--0---0---|
|-------------------------|-------------2--0--------|(0)--3--0--2--0---0---|
|-------------------------|-------------------------|----------------------|
|-------------------------|-------------------------|----------------------|

let ring ---------------| sl. Gtr. 2
|-------------------------|-------------------------||-------------------------------|
|-12--12------------------|-------------------------||-0-------------------------0---|
|-12------12-------12---12|-10/12--12----12\\\\\\\\\||-0---///3-----2---0--/3----0---|
|-------------12---12---12|-10/12--12----12\\\\\\\\\||-0---///3-----2---0--/3----0---|
|-------------------------|-------------------------||-0---///3-----2---0--/3----0---|
|-------------------------|-------------------------||-------------------------------|

p p p
|-3--------------------3--|-----------------------3-|--3---3-------------------------|
|-3--------------------3--|-x--x--------------------|--3---3----0----0---------------|
|----0--3-----2--0--0-----|-x--x--3--0--2--0--0-----|-----------0----0---------------|
|----0--3-----2--0--0-----|-x--x--3--0--2--0--0-----|-----------0----0---------------|
|-------------------------|-------------------------|--------------------------------|
|-------------------------|-------------------------|--------------------------------|


|-------------------------|-------------------------|----------------3---------------|
|(0)--//3\\\2---0-/3---0--|(0)----------------------|--------2/3-----3---------------|
|(0)--//3\\\2---0-/3---0--|(0)--/3-------3\2---0/3--|-(3)----------------------------|
|(0)--//3\\\2---0-/3---0--|(0)--/3-------3\2---0----|--------------------------------|
|(0)--//3\\\2---0-/3---0--|(0)----------------------|--------------------------------|
|-------------------------|-------------------------|--------------------------------|

p p p p p
|-------------------------|----------------------3--|-----------------------------3--|
|-x--x---------------x--x-|-x--x-----------------3--|---x--x-------------------------|
|-x--x--3--0---2--0--x--x-|-x--x--3--0---2--0-------|---x--x--3--0---2--0------------|
|-x--x--3--0---2--0--x--x-|-x--x--3--0---2--0-------|---x--x--3--0---2--0------------|
|-------------------------|-------------------------|--------------------------------|
|-------------------------|-------------------------|--------------------------------|


|--(3)\-------------------|-------------------------|--------------------------------|
|--(3)\-----------------0-|(0)-///3\\\\2--0-//3--0--|--(0)---------------------------|
|-------x-/3---2--0-/3--0-|(0)-///3\\\\2--0-//3--0--|--(0)---//3------3\\2----0-/3---|
|-------x-/3---2--0-/3--0-|(0)-///3\\\\2--0-//3--0--|--(0)---//3------3\\2----0-/3---|
|---------/3---2--0-/3--0-|(0)-///3\\\\2--0-//3--0--|--(0)---//3------3\\2----0-/3---|
|-------------------------|-------------------------|--------------------------------|

|(3)----------------------|-------------------------|---------------------------------|
|-----------------x--x----|-------------------------|---------------------------------|
|-----------------x--x--0-|-------------------------|---------------------------------|
|-----------------x--x--0-|-------------------------|---------------------------------|
|-------------------------|-------------------------|---------------------------------|
|-------------------------|-------------------------|---------------------------------|

P.M. P.M.
|---------------------|-------------------------|--------------------|------------------------|
|---------------------|-------------------------|--------------------|---/2---3\\2---3--3-----|
|(3)-------------(3)\-|--------/3----------3--0-|----/3\\\2--0--2--0-|---/2---3\\2---3--3-----|
|(3)-------------(3)\-|-----0--/3---2---0--3--0-|-0--/3\\\2--0--2--0-|---/2---3\\2---3--3-----|
|(3)-------------(3)\-|-/2--0--/3---2---0-------|-0--/3\\\2--0--2--0-|---/2---3\\2------------|
|---------------------|-------------------------|--------------------|-3----------------------|


|---------------------|-------------------------|--------------------|------------------------|
|(3)\---2/3-----------|-------------------------|--------------------|------------------------|
|(3)\-------3\2--0--0-|(0)--///3\\\\2---0/3-0---|----/3\\\\2--0--2--0|-----/3\\\\2--0--0------|
|(3)\-----------------|-----///3\\\\2---0/3-0---|-0--/3\\\\2--0--2--0|-----/3\\\\2--0--0-/3---|
|---------------------|-----///3\\\\2-----------|-0--/3\\\\2--0--2--0|-0-0--------------------|
|---------------------|-------------------------|--------------------|------------------------|


P.M. P.M. P.M.--|
|---------------------|-------------------------|--------------------|------------------------|
|---------------------|--------------------0----|(0)-----------------|------------------------|
|---------------------|-------/3\\\2--0/3--0----|------/3\\2--0--2--0|----------2/3--3\2--0--0|
|-(3)\--1/3-----------|-(3)-0-/3\\\2--0/3--0----|------/3\\2--0--2--0|----------2/3--3\2--0--0|
|---------------------|-----0-/3\\\2------------|----0---------------|---0--0-----------------|
|---------------------|-------------------------|--------------------|------------------------|

let ring
|---------------------|-------------------------|--------------------|------------------------|
|---------2/3---------|-------------------------|--------------------|------------------------|
|--/3--0------3---(3)\|-------------------------|-----------0--0----0|-(0)--/3--2--0--2---0---|
|--/3--0--------------|-14---------(14)\\\\\\\\-|-10---(10)\0--0----0|-(0)--/3--2--0--2---0---|
|---------------------|-14---------(14)\\\\\\\\-|--------------------|------------------------|
|---------------------|-------------------------|--------------------|------------------------|

|----------------------------|---------------------------|------------------------------------|
|----------------------------|---------------------------|------------------------------0-----|
|-(0)------2//3\\2--0--------|-----14------------(14)\\\\|//8--------------(8)\---5--2--0-----|
|-(0)------2//3\\2--0--------|/14----------------(14)\\\\|//8--------------(8)\---5--2--0-----|
|----------------------------|/14----------------(14)\\\\|//8--------------(8)\-5-------0-----|
|----------------------------|---------------------------|------------------------------------|

|----------------------------------------------|----------------------------------------------|
|--(0)-----------------------------------------|--------------2//////3\\\\\\2///4-------------|
|--(0)-----///3--------2--------0--///3----0---|--(0)---------2//////3\\\\\\2///4-------------|
|--(0)-----///3--------2--------0--///3----0---|--(0)---------2//////3\\\\\\2///4-------------|
|--(0)-----------------------------------------|--------------2//////3\\\\\\2///4-------------|
|----------------------------------------------|----------------------------------------------|

|---------------------------|---------------------|----------------------|--------------------|
|-(5)--------------(5)\--/5-|-(5)---------(5)\--5-|-(5)---------(5)/-----|--------------------|
|-(5)--------------(5)\--/5-|-(5)---------(5)\--5-|-(5)---------(5)/---3-|-(3)\2---0--3\2--0--|
|-(5)--------------(5)\--/5-|-(5)---------(5)\--5-|-(5)---------(5)/-----|-------2-0--3\2--0--|
|-(5)--------------(5)\--/5-|-(5)---------(5)\--5-|-(5)---------(5)/-----|--------------------|
|---------------------------|---------------------|----------------------|--------------------|

|---------------------------|---------------------|----------------------|----------------------|
|--5---------------(5)\--/5-|-(5)---------(5)\--/5|-(5)---------(5)\-----|--------------------4/|
|--5---------------(5)\--/5-|-(5)---------(5)\--/5|-(5)---------(5)\---3-|-(3)\2---2//3\\2-0--4/|
|--5---------------(5)\--/5-|-(5)---------(5)\--/5|-(5)---------(5)\-----|-------2-2//3\\2----4/|
|--5---------------(5)\--/5-|-(5)---------(5)\--/5|-(5)---------(5)\-----|----------------------|
|---------------------------|---------------------|----------------------|----------------------|

let ring let ring
|-----5---------------------|------5--------------------|----5--------------------------|
|-/5----4/5--------------4//|/5-------4/5------------4//|/5------------------------2///-|
|-/5---------5\3--0------4//|/5------------5\3---0---4//|/5-----4//5---5\\3---0----2///-|
|-/5---------------------4//|/5----------------------4//|/5-----4//5---5\\3--------2///-|
|---------------------------|---------------------------|-------------------------------|
|---------------------------|---------------------------|-------------------------------|

let ring let ring
|-----3---------------------|------5--------------------|-----5-------------------------|
|-/3--------2///3--------4//|/5-------4/5------------4//|/5------4/5-------------4//----|
|-/3--------2///3--------4//|/5------------5\3--0----4//|/5-----------5\3--0-----4//----|
|-/3---------------3-----4//|/5----------------------4//|/5----------------------4//----|
|------------------3--------|---------------------------|-------------------------------|
|---------------------------|---------------------------|-------------------------------|

let ring let ring
|----5----------------------|-----7--6//7--7--6///7--7--|--------12-----12--11///12-----|
|-/5-----4/5--5---6///7-----|(7)-----6//7-----6///7-----|--7////-12--12-----11///12-----|
|-/5--------------6///7-----|(7)------------------------|-------------------------------|
|-/5------------------------|---------------------------|----------------------------12\|
|---------------------------|---------------------------|-------------------------------|
|---------------------------|---------------------------|-------------------------------|

P.M. let ring
|------7--------7--7-|-7//12--12----12-12-12-12-12-|
|(7)-----6///7--7--7-|-7//12-----12----------------|
|(7)-----6///7-------|-----------------------------|
|--------------------|-----------------------------|
|--------------------|-----------------------------|
|--------------------|-----------------------------|


GUITAR SOLO
|-------12--12--11//12-12-12-|-11//12-12-12-12\\10-----|
|-11/12-----12--11//12-12-12-|-11//12-12-12-12\\10-----|
|----------------------------|----------------------10-|
|----------------------------|-------------------------|
|----------------------------|-------------------------|
|----------------------------|-------------------------|


let ring let ring ~~~~~~~ let ring
|-10///12--12----12--10///12--12----12-|-12///15--15---15------15--15----|
|-10///12-----12-----10///12-----12----|-12///15----------------------15-|
|-10///12------------10///12-----------|---------------------------------|
|--------------------------------------|---------------------------------|
|--------------------------------------|---------------------------------|
|--------------------------------------|---------------------------------|

let ring let ring
|---------15-------15----15---------15----|-15---------15----15///17-----17/15---|
|-14///15----14/15-15-15-----14//15----15-|----14///15-15-15-15///17-----17/15---|
|-14///15----14/15-15--------14//15-------|----14///15-15----15///17-----17/15---|
|-----------------------------------------|--------------------------------------|
|-----------------------------------------|--------------------------------------|
|-----------------------------------------|--------------------------------------|

rake rake
|-------15-15----14----14---------|-----12----------------------------------|
|-14/15----15-15----14----13--/12-|(12)--------------12------------12-------|
|-------------15------------------|--------12----12------12-----12----12----|
|---------------------------------|-----------12-12-------------12----------|
|---------------------------------|--------------------------12-----------12|
|----


Тексты песен DM

Rambler's Top100

body {scrollbar-3dlight-color:black; scrollbar-arrow-color:#02221f; scrollbar-base-color:black; scrollbar-darkshadow-color:black; scrollbar-face-color:#8B4513; scrollbar-track-color:#02221f; scrollbar-shadow-color:black; scrollbar-highlight-color:black;}

 
 

Guns N' Roses 2008 © 2020Используются технологии uCoz