Меню сайта
////

Have You Тип: басс табулатура


SINCE I DONT HAVE YOU (Bassline)
As recorded by Guns N Roses
(From the 1994 Album SPAGETTI INCIDENT)

Words by J.Beamont, J.Vogel & J.VerscharenMusic by W.Lester, J.Taylor, L.Martin & J.Rock
Transcribed by Michael Raisey
email-Mickmack67@aol.com

Gtr I (Eb Ab Db Gb) - 'Duff'

Intro Pre-Verse
Q.=68 Q.=72
12/8
Gtr I
Wx8 W Q Q H E E H. H. q E q E
|----------------|------------------||------------------|--------------------|
|----------------|------------------||------------------|--------------------|
|----------------|------------------||------------------|---------3----3-----|
|----------------|------------15\---||-3------3-0-------|-5------------------|


H E E H +E E H +E E H +E E H. H.
|---------------------|-----------------------|----------------|
|---------------------|-----------------------|----------------|
|---------------------|------------3----(3)-2-|-0-------(0)----|
|-3------3-0----(0)-0-|-3----(3)--------------|----------------|


1st Verse
Q E Q E Q E Q E H +E E q E Q E H. q E Q +E
|---------------------||----------------------|--------------------------|
|---------------------||----------------------|--------------------------|
|-5--5-3--3-2--2-0--0-||--------------------2-|-3-------5----5b5.5r=(5)--|
|---------------------||-3----(3)-3-3---------|--------------------------|


H +E E q Q E E H. q E Q +E H +E E q Q E E
|----------------------|-------------------------|-----------------------|
|----------------------|-------------------------|-----------------------|
|------------------0-2-|-3-------5----5b5.5r=(5)-|------------------0-2--|
|-3----(3)-3-3---------|-------------------------|-3----(3)-3-3----------|


H. E q Q E Q E Q E Q E Q E Q E q E q E Q E
|-------------------|---------------------|----------------------||
|-------------------|---------------------|----------------------||
|-3-------3-5-------|---------------------|-5--5-3--3-2--2-0--0--||
|-----------------5-|-5--5-5--5-5--5-5--5-|----------------------||


2nd Verse
H +E E Q +E E E E H +E E Q +E Q E H E E q E E E E
|-------------------------|------------------------|----------------------|
|-------------------------|------------------------|----------------------|
|---------------------0-2-|-3----(3)-3-5--(5)-5--5-|-----------------0-2--|
|-3----(3)-3-3--(3)-3-----|------------------------|-3------3-3----3------|


H +E E q E q E H E E q Q E E H E E q E Q E
|----------------------|--------------------|---------------------|
|----------------------|--------------------|---------------------|
|-3----(3)-3-5----5----|----------------0-2-|-3------3-3----3-----|
|----------------------|-3------3-3---------|---------------------|


Q E Q E Q E E E E Q E E E E E E E Q E Q E Q E Q E Q E
|----------------------|-----------------------||-----------------------|
|----------------------|-----------------------||o----------------------|
|------------------0-2-|-----------------------||o----------------------|
|-5--5-5--5-5--5-5-----|-3--3-3-3-3-3-3-3-3--3-||--5--5-5--5-5--5-5--5--|


Q E Q E Q E Q E Q E Q E Q E Q E Q E Q E Q E Q E
|----------------------||---------------------|----------------------||
|---------------------o||---------------------|----------------------||
|---------------------o||---------------------|-5--5-3--3-2--2-0--0--||
|-3--3-3--3-3--3-3--3--||-5--5-5--5-5--5-5--5-|----------------------||


Guitar Solo
H E E E E Q E E Q E E E E E Q E E E H E E E E Q E E
|---------------------|-----------------------|----------------------|
|---------------------|-----------------------|----------------------|
|-----------------0-2-|-3--3-3-2-3-5----5-5-5-|-----------------0-2--|
|-3------3-3----------|-----------------------|-3------3-3-----------|


Q E E E E Q E Q E H E E E Q E E E Q E Q E Q E E E E
|-----------------------|---------------------|-----------------------------|
|-----------------------|---------------------|-----------------------------|
|-3--3-3-2-3-5--5-5\----|-----------------0-2-|-3--3-3--3-(3)--(3)-3-2-(0)--|
|---------------------0-|-3------3-3----------|-----------------------------|


3rd Verse
Q E Q E E E E E E E Q E Q E Q E Q E h +E E e E Q E E
|-----------------------|---------------------||------------------------|
|-----------------------|---------------------||------------------------|
|-----------------------|-5--5-3--3-2--2-0--0-||-------------------0-2--|
|-5--5-5--5-5-5-5-5-5-5-|---------------------||-3----(3)-3-3-----------|


h +E E Q E E Q h +E E e E Q E E h +E E Q. Q.
|----------------------|-----------------------|-----------------------|
|----------------------|-----------------------|-----------------------|
|-3----(3)-3-5--5-5----|-------------------0-2-|-3----(3)-3-5----5-----|
|----------------------|-3----(3)-3-3----------|-----------------------|


h +E E e Q Q E H +E E H. Q E Q E Q E Q E
|----------------------|--------------------|----------------------|
|----------------------|--------------------|----------------------|
|--------------------2-|-3----(3)-3-3-------|----------------------|
|-3----(3)-3-3---------|--------------------|-5--5-5--5-5--5-5--5--|


Outro
E E E E E E E E E E E E Q E Q E Q E Q E Q E Q E E E E Q E
|-------------------------||----------------------|------------------------||
|-------------------------||o---------------------|-----------------------o||
|-5-5-5-5-5-5-5-5-5-5-5-5-||o---------------------|-----------5---5-5--5--o||
|-------------------------||--3--3-3--3-0--0-0--0-|-5--5-5--5--------------||


Q E Q E Q E E E E Q E E E E E E E E E E Q E Q E Q E E E E
|----------------------|--------------------------|-----------------------|
|----------------------|--------------------------|-----------------------|
|----------------------|--------2-3-5-5-(5)-5-0---|-----------------------|
|-3--3-3--3-0--0-0-2-3-|-5--5-5-----------------3-|-3--3-3--3-0--0-0-2-3--|


Q E Q E Q E Q E Q E Q E Q E Q E W. +W.
|---------------------|---------------------|---------------|--------*|
|---------------------|---------------------|---------------|--------*|
|-----------5----5--5-|---------------------|---------------|--------*|
|-5--5-5--5-----------|-3--3-3--3-0--0-0--0-|-3-------------|-(3)----*|


Duration Legend
---------------
W - whole; H - half; Q - quarter; E - 8th; S - 16th; T - 32nd; X - 64th; a - acciaccatura
+ - note tied to previous; . - note dotted; .. - note double dotted
Uncapitalized letters represent notes that are staccato (1/2 duration)
Irregular groupings are notated above the duration line
Duration letters will always appear directly above the note/fret number it represents the
duration for. Duration letters with no fret number below them represent rests. Multi-
bar rests are notated in the form Wxn, where n is the number of bars to rest for. Low
melody durations appear below the staff


Misc Legend
-----------
| - bar
|| - double bar
||o - repeat start
o|| - repeat end
*| - double bar (ending)
: - bar (freetime)
$ - Segno
& - Coda
Tempo markers - = BPM(8/16=s8/s16), where s8 = swing 8ths, s16 = swing 16ths


***************************************************************************************
* Generated using Power Tab Editor by Brad Larsen - http://powertab.guitarnetwork.org *
***************************************************************************************




Тексты песен DM

Rambler's Top100

body {scrollbar-3dlight-color:black; scrollbar-arrow-color:#02221f; scrollbar-base-color:black; scrollbar-darkshadow-color:black; scrollbar-face-color:#8B4513; scrollbar-track-color:#02221f; scrollbar-shadow-color:black; scrollbar-highlight-color:black;}

 
 

Guns N' Roses 2008 © 2020Используются технологии uCoz