Меню сайта
////

Greatest Hits1 (album)
 
 
E:|-17^--hold----15--14--h15p14-----------15--14--h15p14-----------12--14-|
B:|-----------------------------17-----------------------17-16------------|
G:|-----------------------------------------------------------------------|
D:|-----------------------------------------------------------------------|
A:|-----------------------------------------------------------------------|
E:|-----------------------------------------------------------------------|


E:|-----------------------------------------------------------------------|
B:|--15^--12----------------------------------------13-12-------h13p12\10-|
G:|----------14^--12--11h12----------------11-12-14-----------------------|
D:|-----------------------------14-----14---------------------------------|
A:|-----------------------------------------------------------------------|
E:|-----------------------------------------------------------------------|


E:|---------------------------------------------15^-----------------------|
B:|--13^-----13-----12--12-(12)-------12^----------------7^^--------------|
G:|-----------------------------------------14-----------------9--9-------|
D:|-----------------------------------------------------------------------|
A:|-----------------------------------------------------------------------|
E:|-----------------------------------------------------------------------|

E:|-----------------------------------------------------------------------|
B:|-----7^----------------------------------------------------------------|
G:|----------9--9-----8^----8/11---------11^---9-----------------9--------|
D:|-----------------------------------------------9^---7---9--------------|
A:|-----------------------------------------------------------------------|
E:|-----------------------------------------------------------------------|

E:|-----------------------------------------------------------------------|
B:|--------7h8--p7---------------------------------------------7^---7-10^-|
G:|----------------------9------8^-----8------/11-----9^--8-9-----9-------|
D:|-----------------------------------------------------------------------|
A:|-----------------------------------------------------------------------|
E:|-----------------------------------------------------------------------|

E:|-7-8p7-11p7-8-11-12/14-11-12--14/15-12-14-15p14-12----14p11-12h14p12---|
B:|---------------------------------------------------15----------------15|
G:|-----------------------------------------------------------------------|
D:|-----------------------------------------------------------------------|
A:|-----------------------------------------------------------------------|
E:|-----------------------------------------------------------------------|

This par uses wah wah

E:|-17--------------------------------------------------------------------|
B:|----15^---15^---15^---15^---15^-p12-----15^----15^--------15^-p12------|
G:|------------------------------------14----------------------------14---|
D:|-----------------------------------------------------------------------|
A:|-----------------------------------------------------------------------|
E:|-----------------------------------------------------------------------|

E:|----------------------------------15-----------------------------------|
B:|--17^---17^--------17^----17^----------17^---------17^-p15--15h17------|
G:|-------------------17^-------------------------------------------------|
D:|-----------------------------------------------------------------------|
A:|-----------------------------------------------------------------------|
E:|-----------------------------------------------------------------------|

E:|-----------12----------------------------------------------------------|
B:|-15^------------15---12------------------------------------------------|
G:|---------------------------14^-p12-14---12-14----12--14^----12--14--12-|
D:|-----------------------------------------------------------------------|
A:|-----------------------------------------------------------------------|
E:|-----------------------------------------------------------------------|

E:|----15-------------15-----15-----15------------------------------------|
B:|----15-------15----15-----15-------15----------------------------------|
G:|-14^--14--12-14^-----14^----14^------14^-p12----14p12--x-x----12^------|
D:|---------------------------------------------14--------x-x-------------|
A:|-----------------------------------------------------------------------|
E:|-----------------------------------------------------------------------|

E:|-----------------------------------------------------------------------|
B:|-----------------------------------------------------------------------|
G:|-----------------12h14p12----12^--------------------12h14p12-----12-12-|
D:|-14p12-14----x-x----------14--------14p12-14----x-x----------14--------|
A:|-----------------------------------------------------------------------|
E:|-----------------------------------------------------------------------|


E:|----------------------------------------------12-12-------15-15p12--15-|
B:|-------------------12-12-------15-15p12-------------15p12--------------|
G:|-------14-14p12-14-------14p12-----------------------------------------|
D:|-14p12-----------------------------------------------------------------|
A:|-----------------------------------------------------------------------|
E:|-----------------------------------------------------------------------|

E:|-14----12h15p12---------12-----------12-----------12-----------12------|
B:|----15----------15--15^----15p12--------15p12-15^----15p12--------15p12|
G:|----------------------------------14^-----------------------14^--------|
D:|-----------------------------------------------------------------------|
A:|-----------------------------------------------------------------------|
E:|-----------------------------------------------------------------------|

E:|------12-----------12-----------12--------------12-------15^-----------|
B:|--15^----15p12--------15p12-15^----15p12-----12----15p12---------------|
G:|---------------14^-----------------------14^---------------------------|
D:|-----------------------------------------------------------------------|
A:|-----------------------------------------------------------------------|
E:|-----------------------------------------------------------------------|

E:|--------------------15------12h15p12----12------12---------------------|
B:|-------------------------------------15-----15^-----15p12--------------|
G:|-----------------------------------------------------------14^-p12-14^-|
D:|-----------------------------------------------------------------------|
A:|-----------------------------------------------------------------------|
E:|-----------------------------------------------------------------------|

E:|---------------------------------------------------|
B:|-------15------------------------------------------|
G:|----------14^-p12-14^----14p12--------------12-----|
D:|----------------------14-------14------------------|
A:|---------------------------------------------------|
E:|---------------------------------------------------|

Following vocals ad lib over E F# G A B C D G chord sequence
Where do we go?_____ Where do we go_____now?
Where do we go?_____ Where do we go?______
Where do we go____now?_____ Where do we go?______
Where do we go?_____ CHILD !
Where do we go____now? Where do we go______now,
Now?_________________Where do we go?

ENDING :
|--------------------------------------------------------------------|
|-----------------------------------------------------------------9--|
|---------------------------------------------------------------9----|
|--14-/-9----9/5---------------------------------------------9-------|
|---------------------10-/-7-/-2---------------------------7---------|
|-------------------------------------5-/-3hb---3-/-0----------------|

3.PATIENCE

Quarter=120=----

>C---------------|----------------|G---------------|----------------|
> | | | |
>------0---0-----|----------------|----------------|----------------|
>------1---1-1-1-|3p1-1-0h1-1-1p0-|------0---------|1p0-------------|
>----0-------0-0-|0---0-0---0-0---|----0-----0-----|----0-2p0---0h2-|
>2-2---------2-2-|2---2-2---2-2---|--0---------0---|----------0-0h2-|
>3-----------3-3-|3---3-3---3-3---|2-------------2-|----------------|
>----------------|----------------|----------------|----------------|
>
>
>
>Av--------------|----------------|D---------------|----------------|
> | | | |
>----------------|----------------|2---2---2-2-----|3p2-2-0---2-----|
>----2---------0-|3p2---0h2-2-----|3-3---3-----3-3-|3---3-3---3-----|
>------2---2-----|----2-0h2-2-2-0-|2-------------2-|2---2-2---2-----|
>--------2---2---|----2-------2-0-|0-------------0-|0---0-0---0-----|
>0---------------|----------------|----------------|------------0-2-|
>----------------|----------------|----------------|----------------|
> | | | |
>----------------|----------------|----------------|----------------|
>----------------|----------------|----------------|----------------|
>----------------|----------------|----------------|------------7---|
>----------------|----------------|----------------|----------------|
>----------------|----------------|----------------|----------------|
>----------------|----------------|----------------|----------------|
>
>
>
>C---------------|----------------|G---------------|----------------|
> | | | |
>------0---0-----|----------------|----------------|----------------|
>------1---1-1-1-|3p1-1-0h1-1-1p0-|------0---------|1p0-------------|
>----0-------0-0-|0---0-0---0-0---|----0-----0-----|----0-2p0---0h2-|
>2-2---------2-2-|2---2-2---2-2---|--0---------0---|----------0-0h2-|
>3-----------3-3-|3---3-3---3-3---|2-------------2-|----------------|
>----------------|----------------|----------------|----------------|
> | | | |
>----------------|----10----------|--7-8-9-10------|----------------|
>8-------------8-|1012--10--8-108-|10^-------10^-8-|------------10--|
>----------------|------**--------|----------------|--------------9-|
>----------------|----------------|----------------|----------------|
>----------------|----------------|----------------|----------------|
>----------------|----------------|----------------|----------------|
>
>
>Av--------------|----------------|D---------------|----------------|
> | | | |
>----------------|----------------|2---2---2-2-----|3p2-2-0---2-----|
>----2---------0-|3p2---0h2-2-----|3-3---3-----3-3-|3---3-3---3-----|
>------2---2-----|----2-0h2-2-2-0-|2-------------2-|2---2-2---2-----|
>--------2---2---|----2-------2-0-|0-------------0-|0---0-0---0-----|
>0---------------|----------------|----------------|------------0-2-|
>----------------|----------------|----------------|----------------|
> | | | |
>------------7s8s|9---------------|--10----8-----7-|----7s5---------|
>10--------------|----------------|----------------|8---------------|
>------------7s8s|9---------------|11----9-----7---|--7--s5---------|
>----------------|----------------|----------------|----------------|
>----------------|----------------|----------------|----------------|
>----------------|----------------|----------------|----------------|
>
>
>
>C---/---/-/-/-G6|G-/-/-/-/-/-/-/-|C---/-/-/-/-/-G6|Em--/-/-/-/-/-G6|
> | | | |
>------0---------|----------------|----------------|----------------|
>----1---3p1-----|----------------|------1---------|----------------|
>--0-----------0-|------0---------|----0---0-------|------0---------|
>2-----------2---|----0-----0-----|--2-------2-----|----2-----------|
>3---------------|--2---------2---|3---------------|--2-------------|
>----------------|3-------------3-|------------3-2-|0---------------|
>
>
>C---/-/-/-/-/-G6|G---/-/-/-/-/-G6|D---------------|----------------|
> | | | |
>----------------|----------------|------2---------|----------------|
>------1---------|--------0-------|3---------------|----------------|
>----0---0-------|------0---0-----|2---------------|----------------|
>--2-------2-----|----0-------0---|0---------------|----------------|
>3-----------3-2-|2-2-------------|----------------|----------------|
>----------------|3---------------|----------------|----------------|
>
>
>
>
> Shed a tear...
>----------------|----------------|----------------|----------------|
>------1---1-1-1-|3p1---0---1-----|----------------|----------------|
>----0-----0-0-0-|0-----------0---|----------------|--------0-----0-|
>--2-------2-2-2-|2---------------|----------------|----0-----0-2-0-|
>3---------3-3-3-|3---3---------3-|2-------2-0-----|----2-0---------|
>----------------|----------------|----------------|3---------------|
> | | | |
>----------------|----------------|----------------|----------------|
>------1---------|3-1---1---------|----------------|----------------|
>----0-----------|----0---0-------|------0---------|------0---------|
>--2-------------|----------2-----|----0-----------|----0---0-----0-|
>3---------------|------------3-0-|2---------0-----|--2-------2-----|
>----------------|----------------|--------------3-|3-----------3---|
>
>
>
>--------5-------|----------------|----------------|----------------|
>------2---------|3p2---0---2-----|----------------|----------------|
>----2-----------|----------------|----------------|--2---2-4-2-----|
>2---------------|----2-----------|0-------------0s|4-----------4---|
>0---------------|----------0-3-4-|----------------|--------------0-|
>----------------|----------------|----------------|----------------|
> | | | |
>------5---------|5-----5---------|------0-2-------|3-2-----0-2-----|
>----5---5-------|5-------5-------|----3-----------|----------------|
>--6-------------|7---------------|----------------|----------------|
>7-----------7---|----------------|0-------------0-|----------------|
>----------------|----------0-3-4-|----------------|----------------|
>----------------|----------------|----------------|----------------|
>
>
> Was a time...
>----------------|----------------|----------------|----------------|
>------1---1-1-1-|3p1---0---1-----|----------------|----------------|
>----0-----0-0-0-|0-----------0---|----------------|--------0-----0-|
>--2-------2-2-2-|2---------------|----------------|----0-----0-2-0-|
>3---------3-3-3-|3---3---------3-|2-------2-0-----|----2-0---------|
>----------------|----------------|----------------|3---------------|
> | | | |
>----------------|----------------|----------------|----------------|
>------1---------|3-1---1---------|----------------|----------------|
>----0-----------|----0---0-------|------0---------|------0---------|
>--2-------------|----------2-----|----0-----------|----0---0-----0-|
>3---------------|------------3-0-|2---------0-----|--2-------2-----|
>----------------|----------------|--------------3-|3-----------3---|
>
>
>
>
>--------5-------|----------------|------0-2-------|3-2---0-0-2-----|
>------2---------|3p2---0---2-----|----3-----3-----|------3-3-3---0-|
>----2-----------|----------------|------------2---|--------2-2-2---|
>2---------------|----2-----------|0-------------0-|----------------|
>0---------------|----------0-3-4-|----------------|----------------|
>----------------|----------------|----------------|----------------|
> | | | |
>------5---------|5-----5---------|----2---2-------|----------------|
>----5---5-------|5-------5-------|------3---3-----|3-----3---3-3-0-|
>--6-------------|7---------------|------------2-0-|----------2-2-0-|
>7-----------7---|----------------|0---------------|----------0-0-0-|
>----------------|----------0-3-4-|----------------|----------------|
>----------------|----------------|----------------|----------------|
>
>CHORUS
> Said woman, take it slow...
>C9--/---/-/-/-G6|G---/---/-/-/-G6|C---/-/-/-/-/-G6|Em--/---/-/-/-G6|
> | | | |
>----------------|--------3-------|----------------|------0---------|
>1-------1-------|3-3-0-0---3---0-|----1-----------|----0---0-------|
>0-------0-------|0-----------0---|0---0-----------|----------0---0-|
>2-------2-------|0---------------|2---2-----------|--2---------2---|
>3-------3-------|2---------------|3---3-----------|----------------|
>----------------|3---------------|------------3-2-|0---------------|
>
>
>C---/---/-/-/-G6|G---/---/-/-/-/-| Same as tabbed | guitar---------|
> | | | |
>------0---------|----------------|2---2---0-2---3-|--2---0---2-----|
>------1---1-1-0-|--------------0-|3---3(3)3-3---3-|3-3-3-3-3-3-3-0-|
>--0---0---0-0-0-|0-----0-------0-|2---2(2)2-2---2-|2-2-2-2-2-2-2-0-|
>2---2-----2-2-0-|0---0-----0---0-|0---0(0)0-0---0-|0-0-0-0-0-0-0-0-|
>3---3-----3-3---|2-----------2---|----------------|----------------|
>----------------|3---------------|----------------|----------------|
>
>C9--/---/-/-/-G6|G---/---/-/-/-G6|C---/-/-/-/-/-G6|Em--/---/-/-/-G6|
> | | | |
>----------------|--------3-------|----------------|------0---------|
>1-------1-------|3-3-0-0---3---0-|----1-----------|----0---0-------|
>0-------0-------|0-----------0---|0---0-----------|----------0---0-|
>2-------2-------|0---------------|2---2-----------|--2---------2---|
>3-------3-------|2---------------|3---3-----------|----------------|
>----------------|3---------------|------------3-2-|0---------------|
>
> Figure 1 (end Figure 1)
>C---/---/-/-/-G6|G---/---/-/-/-/-|D---------------|--------------//|
> | | | |
>------0---------|----------------|2---2---0-2---3-|--2---0---2---22|
>------1---1-1-0-|--------------0-|3---3(3)3-3-3-3-|3-3-3-3-3-3-3-33|
>--0---0---0-0-0-|0-----0-------0-|2---2(2)2-2-2-2-|2-2-2-2-2-2-2-22|
>2---2-----2-2-0-|0---0-----0---0-|0---0(0)0-0-0-0-|0-0-0-0-0-0-0-00|
>3---3-----3-3---|2-----------2---|----------------|----------------|
>----------------|3---------------|----------------|----------------|
>
>
>2---------------|----------------|----10----------|----------------|
>3---------------|--------------5s|10--------------|----------------|
>2---------------|--------------6s|11--------------|--------------7s|
>0---------------|--------------7s|12--------------|----------------|
>----------------|----------------|----------------|----------------|
>----------------|----------------|----------------|----------------|
> | | | |
>2---2---0-2---3-|--2---0---2---22|2---2---0-2---3-|--2---0---2---22|
>3---3(3)3-3-3-3-|3-3-3-3-3-3-3-33|3---3(3)3-3-3-3-|3-3-3-3-3-3-3-33|
>2---2(2)2-2-2-2-|2-2-2-2-2-2-2-22|2---2(2)2-2-2-2-|2-2-2-2-2-2-2-22|
>0---0(0)0-0-0-0-|0-0-0-0-0-0-0-00|0---0(0)0-0-0-0-|0-0-0-0-0-0-0-00|
>----------------|----------------|----------------|----------------|
>----------------|----------------|----------------|----------------|
>
>
>______________________
>| 1.
>----14--------14|----14--14--14\-|
>----------------|--14--14--14----|
>14--------14----|----------------|
>----------------|----------------|
>----------------|----------------|
>----------------|----------------|
> | | Go back to play Verse 2.
>2---2---0-2---3-|--2---0---2-----|
>3---3(3)3-3-3-3-|3-3-3-3-3-3-----|
>2---2(2)2-2-2-2-|2-2-2-2-2-2-----|
>0---0(0)0-0-0-0-|0-0-0-0-0-0-----|
>----------------|------------0-2-|
>----------------|----------------|
>
>
>______________________
>| 2.
>----14--------14|------------8p7-|8-------8s108---|------------8p7-|
>----------------|----------------|--------------12|--------8-------|
>14--------14----|----------------|--------------**|----------------|
>----------------|----------------|----------------|----------------|
>----------------|----------------|----------------|----------------|
>----------------|----------------|----------------|----------------|
> | | | |
>2---2---0-2---3-|--2-----------00|----------------|----------------|
>3---3(3)3-3-3-3-|3-3-3-0-0-3-3-11|----------------|----------------|
>2---2(2)2-2-2-2-|2-2-2-0-0-2-2-00|With chorus backing chords-------|
>0---0(0)0-0-0-0-|0-0-0-0-0-0-0-22|----------------|----------------|
>----------------|--------------33|----------------|----------------|
>----------------|----------------|----------------|----------------|
>
>
>
>8-------8s10--12|------------8p7-|8-------8s108---|--------------12|
>------------12**|----------------|--------------12|--108---8---8-**|
>----------------|----------------|--------------**|----------------|
>----------------|----------------|----------------|----------------|
>----------------|----------------|----------------|----------------|
>----------------|----------------|----------------|----------------|
> | | | |
>----------------|----------------|----------------|----------------|
>----------------|----------------|----------------|----------------|
>----------------|----------------|----------------|----------------|
>----------------|----------------|----------------|----------------|
>----------------|----------------|----------------|----------------|
>----------------|----------------|----------------|----------------|
>
> h
>--1010--------14|--12101210------|----------------|----------------|
>--------------**|----------------|----5-8---------|----------------|
>----------------|----------------|7^------7^r-5---|----4-7---------|
>----------------|----------------|----------------|7^------7^r-5---|
>----------------|----------------|----------------|----------------|
>----------------|----------------|----------------|----------------|
> | | | |
>----------------|----------------|----------------|----------------|
>----------------|----------------|----------------|----------------|
>With Figure 1---|----------------|With chorus backing chords-------|
>----------------|----------------|----------------|----------------|
>----------------|----------------|----------------|----------------|
>----------------|----------------|----------------|----------------|
>
>----------------|----------------|----------------|----------------|
>----5-8---------|--8-10^8----8-10|10^-r-8-10--8-10^--8-10--8-108-12|
>7^------7^r-5-7s|9-------9-------|----------9-----|------9-------**|
>----------------|----------------|----------------|----------------|
>----------------|----------------|----------------|----------------|
>----------------|----------------|----------------|----------------|
> | | | |
>----------------|----------------|----------------|----------------|
>----------------|----------------|----------------|----------------|
>----------------|----------------|----------------|----------------|
>----------------|----------------|----------------|----------------|
>----------------|----------------|----------------|----------------|
>----------------|----------------|----------------|----------------|
>
>----------------|----------------|----------------|----------------|
>--1010----------|----------------|5---3-------4p2-|----2---------7^|
>----------------|----------------|**--------------|3h4---0---------|
>----------------|----------------|----------------|----------------|
>----------------|----------------|----------------|----------------|
>----------------|----------------|----------------|----------------|
> | | | |
>----------------|----------------|----------------|----------------|
>----------------|----------------|----------------|----------------|
>With Figure 1 (3 times)----------|----------------|----------------|
>----------------|----------------|----------------|----------------|
>----------------|----------------|----------------|----------------|
>----------------|----------------|----------------|----------------|
>
>----------------|----------------|----------------|----------------|
>----7-----------|-------***----7^|--7-----5-7---3-|----------3-----|
>----------------|4p2-----5-------|----------------|--2---0---2-----|
>----------------|----3h4-0-------|----------------|------0---0-----|
>----------------|----------------|----------------|----------------|
>----------------|----------------|----------------|----------------|
> | | | |
>----------------|----------------|2---2---0-2---3-|3-2---0---------|
>----------------|----------------|3---3(3)3-3-3-3-|3-3---3---3-----|
>----------------|----------------|2---2(2)2-2-2-2-|2-2---2---2-----|
>----------------|----------------|0---0(0)0-0-0-0-|0-0---0---0-----|
>----------------|----------------|----------------|----------------|
>----------------|----------------|----------------|----------------|
>
>
>For the last part of the song use the following figures:
>
>2---2---2---2-2-|-------3-33-3333|
>3---3---3---3-30|3-333-33-33-3333|
>2---2---2---2-20|0-000-00-00-0000| Figure 2
>0---0---0---0-00|0-000-00-00-0000|
>0--------------0|2---2-22-22-2222|
>----2-0-2---2-20|3---3-33-33-3333|
>
>F6//////////////|G-///-///////-/-|D---------------|Figure 3
>
>
>Play figure 2 10 times, then on the second "I need you" play figure 3.
>The song ends as follows:
>
>
>3p2-------------|2---------------|
>----3-----------|3---------------|
>------2---------|2---------------|
>--------5p4-0---|0---------------|
>----------------|----------------|
>----------------|----------------|
>


--


PATIENCE - GUNS 'N' ROSES
Tabbed by Vassilis Tzerpos

Key:

p = pull-off ^ = bend
h = hammer-on r = release bend
s = slide / = repeat previous chord
* = slide to the above or below indicated note from as many frets below
as the number of stars

Av = 577655 G6 = xx0000 C9 = x32030 F6 = 1x3231

Quarter=120=----

C---------------|----------------|G---------------|----------------|
| | | |
------0---0-----|----------------|----------------|----------------|
------1---1-1-1-|3p1-1-0h1-1-1p0-|------0---------|1p0-------------|
----0-------0-0-|0---0-0---0-0---|----0-----0-----|----0-2p0---0h2-|
2-2---------2-2-|2---2-2---2-2---|--0---------0---|----------0-0h2-|
3-----------3-3-|3---3-3---3-3---|2-------------2-|----------------|
----------------|----------------|----------------|----------------|



Av--------------|----------------|D---------------|----------------|
| | | |
----------------|----------------|2---2---2-2-----|3p2-2-0---2-----|
----2---------0-|3p2---0h2-2-----|3-3---3-----3-3-|3---3-3---3-----|
------2---2-----|----2-0h2-2-2-0-|2-------------2-|2---2-2---2-----|
--------2---2---|----2-------2-0-|0-------------0-|0---0-0---0-----|
0---------------|----------------|----------------|------------0-2-|
----------------|----------------|----------------|----------------|
| | | |
----------------|----------------|----------------|----------------|
----------------|----------------|----------------|----------------|
----------------|----------------|----------------|------------7---|
----------------|----------------|----------------|----------------|
----------------|----------------|----------------|----------------|
----------------|----------------|----------------|----------------|



C---------------|----------------|G---------------|----------------|
| | | |
------0---0-----|----------------|----------------|----------------|
------1---1-1-1-|3p1-1-0h1-1-1p0-|------0---------|1p0-------------|
----0-------0-0-|0---0-0---0-0---|----0-----0-----|----0-2p0---0h2-|
2-2---------2-2-|2---2-2---2-2---|--0---------0---|----------0-0h2-|
3-----------3-3-|3---3-3---3-3---|2-------------2-|----------------|
----------------|----------------|----------------|----------------|
| | | |
----------------|----10----------|--7-8-9-10------|----------------|
8-------------8-|1012--10--8-108-|10^-------10^-8-|------------10--|
----------------|------**--------|----------------|--------------9-|
----------------|----------------|----------------|----------------|
----------------|----------------|----------------|----------------|
----------------|----------------|----------------|----------------|


Av--------------|----------------|D---------------|----------------|
| | | |
----------------|----------------|2---2---2-2-----|3p2-2-0---2-----|
----2---------0-|3p2---0h2-2-----|3-3---3-----3-3-|3---3-3---3-----|
------2---2-----|----2-0h2-2-2-0-|2-------------2-|2---2-2---2-----|
--------2---2---|----2-------2-0-|0-------------0-|0---0-0---0-----|
0---------------|----------------|----------------|------------0-2-|
----------------|----------------|----------------|----------------|
| | | |
------------7s8s|9---------------|--10----8-----7-|----7s5---------|
10--------------|----------------|----------------|8---------------|
------------7s8s|9---------------|11----9-----7---|--7--s5---------|
----------------|----------------|----------------|----------------|
----------------|----------------|----------------|----------------|
----------------|----------------|----------------|----------------|



C---/---/-/-/-G6|G-/-/-/-/-/-/-/-|C---/-/-/-/-/-G6|Em--/-/-/-/-/-G6|
| | | |
------0---------|----------------|----------------|----------------|
----1---3p1-----|----------------|------1---------|----------------|
--0-----------0-|------0---------|----0---0-------|------0---------|
2-----------2---|----0-----0-----|--2-------2-----|----2-----------|
3---------------|--2---------2---|3---------------|--2-------------|
----------------|3-------------3-|---


Тексты песен DM

Rambler's Top100

body {scrollbar-3dlight-color:black; scrollbar-arrow-color:#02221f; scrollbar-base-color:black; scrollbar-darkshadow-color:black; scrollbar-face-color:#8B4513; scrollbar-track-color:#02221f; scrollbar-shadow-color:black; scrollbar-highlight-color:black;}

 
 

Guns N' Roses 2008 © 2020Используются технологии uCoz