Меню сайта
////

For Destruction (album) Тип: табулатура


Band- Guns N Roses
Album- Appetite For Destruction

1.Welcome To The Jungle
2.It's So Easy
3.Nightrain
4.Outta Get Me
5.Mr.Brownstone
6.Paradise City
7.My Michelle
8.Think About You
9.Sweet Child O' Mine
10.You're Crazy
11.Anything Goes
12.Rocket Queen

1.WELCOME TO THE JUNGLE

Intro. with echo

e||------------------------------------------|
B||------------------------------------------|
G||--4--4-4--2-4--2----4------4-------4------|
D||-----------------4----4--2----2-0----2----|
A||---------------------------------------2--|
E||------------------------------------------|

------------------------------------------|
------------------------------------------|
--4--4-4--2-4--2----4------4-------4------|
-----------------4----4--2----2-0----2----|
---------------------------------------2--|
------------------------------------------|

------------------------------------------|
------------------------------------------|
--4--4-4--2-4--2----4------4-------4------|
-----------------4----4--2----2-0----2----|
---------------------------------------2--|
------------------------------------------|

------------------------------------------|
------------------------------------------|
--4--4-4--2-4--2----4------4-------4------|
-----------------4----4--2----2-0----2----|
---------------------------------------2--|
------------------------------------------|

------------------------------------------|
------------------------------------------|
--4--4-4--2-4--2----4------4-------4------|
-----------------4----4--2----2-0----2----|
---------------------------------------2--|
------------------------------------------|

------------------------------------------|
------------------------------------------|
--4--4-4--2-2--2--------------------------|
-----------------4--4-4--2-2--2-0--0------|
-------------------------------------2-0--|
------------------------------------------|

-------------------------------------------|
-------------------------------------------|
--4--4-4--2-2--2---------------------------|
-----------------4--4-4--2-2--2-0--0-------|
-------------------------------------2--0--|
-------------------------------------------|

------------------------------------------|--------------------------|
--0--0-0----------------------------------|--------------------------|
----------2-2--2--------------------------|--4--4--4--4--4--4--4--4--|
-----------------4--4-4--2-2--2-0--0------|--4--4--4--4--4--4--4--4--|
-------------------------------------2-0--|--2--2--2--2--2--2--2--2--|
------------------------------------------|--------------------------|

------------------------|--------------------------|
------------------------|--------------------------|
--4--4--4--4--4----4\---|--2-------2-2--0----------|
--4--4--4--4--4----4\---|--2-------2-2--0----------|
--2--2--2--2--2----2\---|--0-------0-0----------0--|
------------------------|-------3b--------3--2-----|

----------------------------|----------------------------|
----------------------------|----------------------------|
--2--x-x----2-2--0----------|--2--x-x----2-2--0----------|
--2--x-x----2-2--0----------|--2--x-x----2-2--0----------|
--0--x-x----0-0----------0--|--0--x-x----0-0----------0--|
---------3b--------3--2-----|---------3b--------3--2-----|


Welcome to the jungle
-----------x-5------------||---------------------------|
--------------------------||---------------------------|
--2-----x-----------------||---------------------------|
--2-----x-----------------||---------------------------|
--0--0--x----------3-0----||--0--0------0--0-----------|
-----------------------2--||--------3b-------3--2--0-0-|


we got fun and games We got everything you want
---------------------------|---------------------------|
---------------------------|---------------------------|
---------------------------|---------------------------|
---------------------------|---------------------------|
--0--0------0--0-----------|--0--0------0--0-----------|
--------3b-------3--2--0-0-|--------3b-------3--2--0-0-|

удобная инфракрасная сауна

 


honey we know the names we are the people that can find what
---------------------------|---------------------------|
---------------------------|---------------------------|
-----------------------7/9-|--9--9--7--x-9--9----------|
-----------------------7/9-|--9--9--7--x-9--9-7--6--4--|
--0--0------0--0----0--5/7-|--7--7--5--x-7--7-5--4--2--|
--------3b-------3---------|---------------------------|


ever you may need If you got the money honey
---------------------------|---------------------------|
---------------------------|---------------------------|
--9--9--7--x-9--9----------|--9--9--7--x-9--9----------|
--9--9--7--x-9--9-7--6--4--|--9--9--7--x-9--9-7--6--4--|
--7--7--5--x-7--7-5--4--2--|--7--7--5--x-7--7-5--4--2--|
---------------------------|---------------------------|

we got your disease In the Welcome to the jungle Want to bring you to your
jungle
---------------------------|----------------------|----------------------|
---------------------------|----------------------|----------------------|
--9--9--7--x-9--9----------|--5-------------------|--7-------------------|
--9--9--7--x-9--9-7--9-----|--5-------------------|--7-------------------|
--7--7--5--x-7--7-5--7--0--|--3----2--------------|--5----4--------------|
---------------------------|------------5----3----|------------7----5----|


sha na na na na (11 na) knees knees
----------------------------|----------------------------|
----------------------------|----------------------------|
--9--9----------------------|----------------------------|
--9--9----------------------|----------------------------|
--7--7--5-------------------|--7--7--5-------------------|
-----------6-6~6\5-5--3--0--|-----------6-6-6\5-5--3--0--|


Uh ah I wanna watch you bleed
----------------------------|------------------------|
----------------------------|------------------------|
----------------------------|------------------------|
----------------------------|------------------------|
--7--7--5-------------------|--7---5-----------------|
-----------6-6-6\5-5--3--0--|----------6----5--3--4--|

Welcome to the jungle we take it day by day
If you want it, you're gonna bleed,
but it's the price you pay.
And your a very sexy girl
who's very hard to please
You can taste the bright lights,
but you won't get there for free.
In the jungle, welcome to the jungle
Fell my, my, my, my serpentine.
Uh ah I wanna hear you scream

hear you scream guitar solo 1
------------------------|-------------------------------|
------------------------|-------------------------------|
------------------------|----12/-13-----------13----13~-|
------------------------|----11/-12-----12-14-14----14~-|
--7---5-----------------|-------------------------------|
----------6----5--3--4--|------------0------------------|

--------------------------|----------------------------|
----12------------15~-----|------------------15----15~-|
----12--13--------16~-----|----12/-13--------13----13~-|
--------14----------------|----11/-12------------------|
--------------------------|----------------------------|
--------------------------|------------0--0------------|

------------------15--15-----|----------19b---------19--18--17b-|
---12-14--14\-----15--15-----|------17--------------------------|
------15--15\-------------6/-|--18------------------------------|
-----------------------------|----------------------------------|
-----------------------------|----------------------------------|
-----------------------------|----------------------------------|

--------15-16-------------|------------------------------------------|
--------------15~------15b|----15p-12--------------------------------|
--------------------------|------------14b-14r--12-14-12-------------|
--------------------------|------------------------------14-14-------|
--------------------------|------------------------------------13-13-|
--------------------------|------------------------------------------|

---------------------------|---------------------------|
---------------------------|---------------------------|
--------------8b-----------|---------------------------|
---------------------11\---|---------------------------|
--12r--10------------------|---------------------------|
----------12---------------|---------------------------|

Welcome to the jungle,
it's gets worse here every day
You learn to live like an animal,
in the jungle where we play
If you got a hunger for what you see
you'll take it eventually
You can have anything you want,
but you better not take it from me
In the jungle, Welcome to the jungle
watch it bring you to your
sha na na na na na na na knees knees
Uh ah I'm gonna watch you bleed


|--------------------|
|--7-----------------|
|--7------------5----|
|--7------------3----|
|--5-----------------|
|--------------------|

--3--------3\--------|------------------------|----------------------------|
--3--------3\---6----|--7------8p-7-----------|--12------13--12---------8--|
--4--------4\---4----|--7------7--------------|--12-------------7-5--5-----|
--5--------5\--------|--7------7-----7--10----|--12------------------------|
--5--------5\--------|--5---------------8-----|--10------------------------|
--3--------3\--------|------------------------|----------------------------|


And when you're high you never ever want to come down
-------------------------|-------------------------------|---------------------|
--7----------------------|--12------13p-12--------10\-7--|--7------------------|
-----7-------------------|--12---------------------------|--7------------------|
--------7--6--7----10----|--12-------------12\10--10--7--|--7------------10----|
-------------------8-----|--10---------------------------|---------------8-----|
-------------------------|-------------------------------|---------------------|


so down suck down
------------------------------|------------------------------|
--12--12--12--12--12----10----|--12--12--12--12--12----10----|
--12--12--12--12--12----10----|--12--12--12--12--12----10----|
--12--12--12--12--12----10----|--12--12--12--12--12----10----|
------------------------------|------------------------------|
------------------------------|------------------------------|


suck down
------------------------------|----------------------------------|
------------------------------|----------------------------------|
--12--12--12--12--12----10----|--14--14--14--14--14--14--14\-12--|
--12--12--12--12--12----10----|--14--14--14--14--14--14--14\-12--|
--10--10--10--10--10----8-----|--12--12--12--12--12--12--12\-10--|
------------------------------|----------------------------------|


Yeah
--------------------------|---------------------------|
--------------------------|---------------------------|
-----6/-7--------9-----9--|--9--6/-7--------12~---12~-|
-----5/-6--------9-----9--|--9--5/-6--------12~---12~-|
--------------------------|---------------------------|
--0--------0--0-----0-----|-----------0--0------------|


guitar solo2
--------------------------|---------------------------|----------------------|
--------------------------|---------------------------|----------------------|
-----6/-7--------9-----9--|--9--6/-7--------12~---12~-|----------------------|
-----5/-6--------9-----9--|--9--5/-6--------12~---12~-|----------------------|
--------------------------|---------------------------|-----------7-----9r---|
--0--------0--0-----0-----|-----------0--0------------|--9-----------9-------|

--------------------------|-----------------------|--------------------------|
--------------------------|-----------------------|----------------------12--|
--------------------------|----------9b-----11r---|----------11--9----9b-11r-|
----------------9--9b-11--|-------------11--------|----------------11--------|
--------7-9/11------------|-----------------------|--------------------------|
--------------------------|-----------------------|--------------------------|

------------------------|---------------------0--|------0----0----0----|
----------12------------|---------------5-----5--|------3----2----0----|
----------11---9--------|------------6-----6-----|---------------------|
-----------------11--9~-|--9\-----6--------------|---------------------|
------------------------|------------------------|---------------------|
------------------------|------------------------|---------------------|

------------------------|------------------------|-----------------------------|
--2r-----0-----0-----0--|----0--0--0--0----2--4--|---------------------15--15b-|
--2r-----0/-1--1--2/-4--|----4--2--2--1----2--4--|--------------4--------------|
------------------------|------------------4--4--|--2r--0-2--0--4--12----------|
------------------------|------------------------|-----------------------------|
------------------------|------------------------|-----------------------------|

------------------------|---------------------------------|
------15r---------------|------------------14\12----------|
------------14b---14r---|--14r-12----------------------6b-|
------------------------|---------14\12/14----12----------|
------------------------|---------------------------------|
------------------------|---------------------------------|

----------------------|---------------------|-------------------|
----------------------|---------------------|-------------------|
------4---------------|---------------------|-------------------|
---------6b-----4-----|---------------------|-------------------|
-------------------4r-|------2--------------|-------------------|
----------------------|---------4r-----0----|--2~---------------|


slide up
------------------||-------------------|--------------------|
------------------||--4----------------|-------4/-----------|
------------------||--4----------------|-------4/-----------|
------------------||--4----------------|-------4/-----------|
------------------||--2----------------|--------------------|
------------------||-------------------|--------------------|

----------------------|----------------34--|--31\-----31--31\-30\-----|
------x---------------|--------------------|--------------------------|
------12--------------|--------------------|--------------------------|
------x---------------|--------------------|--------------------------|
------x---------------|--------------------|--------------------------|
----------------------|--------------------|--------------------------|

--28-----24---24\-------|--19\--------------||
------------------------|-------------------||
------------------------|-------------------||
------------------------|-------------------||
------------------------|-------------------||
------------------------|-------------------||

----------------------|-----------------------|
--7----6----7----3----|--5----3----5----6-----|
--6----5----6----4----|--6----4----6----7-----|
--4----3----4----5----|--7----5----7----8-----|
----------------------|-----------------------|
----------------------|--------------------0--|

1st 4 bars 3 times
In the jungle Welcome to the jungle
Watch it bring you to your
sha na na na na knees knees
In the jungle, welcome to the jungle
Feel my, my, my, my serpentine.
etc..

2.IT'S SO EASY

4/4
Gtr I

::Played during Duffs bass intro::

|-------------------------------|
|-12---<12>----12---12----------|
|-12---<12>----12-------<12>----|
|-12---<12>---------------------|
|------<12>---------------------|
|-------------------------------|

::Main riff::

|-----------0----0-0----|
|-----------0----0-0----|
|-3-3S2-0---------------|
|-3-3S2-0---------------|
|---------2-------------|
|---------0----0--------|

::Played by gtr 2 during main riff::

|-----------------------------|
|-----------------------------|
|-----------------------------|
|--------------------2--------|
|------------------2---1-0----|
|-5b6-5--3--0--3-4------------|

::verse::

Bb5 A5 G5 E E5(2) Bb5
I see your sis - ter in her sun - day

A5 G5 (E) E5
Dress. She's out to.......

::During chorus played by Slash::

|-5-5-3-5--6p5p3p0-0-0--<0>----|
|-5-5-3-5--6p5p3p0-0-0--<0>----|
|------------------------------|
|------------------------------|
|------------------------------|
|------------------------------|

::Chorus::
A5 G5 A5 Bb5 E Esus#4 Esus4
It's So Eas - y,

p.m slide
E Esus#4 Esus4
Eas - y................


::Bridge 1::

|--------------------------------------------------------------------|
|--------------------------------------------------------------------|
|---------------------------------------0-----0---0-----0-----0---0--|
|-----0-----0---0------0-----0---0----4-----4---------1-----1--------|
|---0-----0----------2-----2--------2-----2-----2---0-----0-----0----|
|-2-----2-----2----3-----3-----3-------------------------------------|

::Bridge 1 continued - immidietly after first part gets over::

PM| PM----| PM| PM----|

|------------------------------------------------|
|------------------------------------------------|
|------------------------------------------------|
|------------------------------------------------|
|-----5-7-5-7---------5-7-----5-7---------5-7----|
|-0-0---------0-0-0-0-----0-0-----0-0-0-0--------|


PM------|

|--------------------------|
|--------------------------|
|--------------------------|
|--------------------------|
|-----------7-7-7-5--------|
|-0-0-0-0-0---------7-5----|

::Pre solo verse::

|---------------0-0-------0----|
|---------------0-0-3-3S5-0----|
|-7-7-5-7-----------2-2S4------|
|-7-7-5-7-5-4-2----------------|
|-5-------5-4-2----------------|
|-------------0----------------|


::Solo::

|-------------------------------12---------------------------------------------|
|-17b19--17b19--17b19---15b16.5----15p-12-------------12-----------------------|
|---------------17b19---------------------14b15-12-14----12-----------12-14----|
|-----------------------------------------------------------14-14--14----------|
|------------------------------------------------------------------------------|
|------------------------------------------------------------------------------|


~~

|-----------------------------------|
|-12----12----12-------12-----15----|
|----15----15----15-14----12--------|
|-----------------------------------|
|-----------------------------------|
|-----------------------------------|


~~

|-------------------------------|
|-14b15-14b15-14----------15----|
|----------------12-------------|
|-------------------14-14-------|
|-------------------------------|
|-------------------------------|

::last verse::

F#5 G5 B5 A5
Come with_ me. Don't ask__ me where__ cause' I don't know._

F#5 G5 B5
I'll__ try__ to__ please_ you. I ain't got no money but it

A5
goes to show

rake rake
|------15--12-------10----(10)~~~~(10)s----------0--|
|----"------------"-10fb--(10)----(10)s-2fb--(2)----|
|---"------------"----------------------------------|
|--"------------"-----------------------------------|
|---------------------------------------------------|
|---------------------------------------------------|

|---------------------------------------------------|
|--3p0----------------------------------------------|
|------2fbr(2)p0------------------------------------|
|----------------2--2~~(2)~~-2--5fbr----------------|
|---------------------------------------------------|
|-------------------------------------5-(5)slowfb---|

|---------------------------------------------------|
|---------------------------------------------------|
|---------------------------------------------------|
|---------------------------5hb---------------------|
|-----------------5hb--7--5-------7-7-(7)-7-7---5hb-|
|-3-(3)-5fb--3-0------------------------------7-----|

|---------------------------------------------------|
|---------------------------------------------------|
|------------------------7--9p7---7-(7)-9--9-----7hb|
|----7s8s7p5-7p5-----7s5--------9-------------9-----|
|-7--------------7-5--------------------------------|
|---------------------------------------------------|
pm ..... ......

|---------------------------------------------------|
|--------8hb----------12-15-------------------------|
|-9---9----------14fb-------14fbr-12--14fb---15--12-|
|---------------------------------------------------|
|---------------------------------------------------|
|---------------------------------------------------|

|--------------12-----------------------------------|
|-----------------15--14h15p14p12---14---12---------|
|-14fb(14)rp12------------------------------14p12---|
|---------------------------------------------------|
|---------------------------------------------------|
|---------------------------------------------------|

|---------------------------------------------------|
|---------------------------------------------------|
|-14-(14)fb--14fb----14--13h14p13------12-----------|
|-----------------14---------------14---------------|
|---------------------------------------------------|
|---------------------------------------------------|
p.m ..

|---------------------------------------------------|
|-14hb(14)rp12----14--------------------------------|
|--------------14----12-----------------------------|
|-----------------------14-14s12-12s8-7-7s5--(5)----|
|---------------------------------------------------|
|---------------------------------------------------|

|---------------------------------------------------|
|---------------------------------------------------|
|---------------------------------------------------|
|--------------8--7--5------------------------------|
|-----------------------7---------------------------|
|--3s(17)s-----------------6--5--3hb--0----(0)------|

|---------------------------------------------------|
|---------------------------------------------------|
|-9-9----7-----9------------------------------------|
|-9-9----7-----9-----8--7--5------------------------|
|-7-7----5-----7--------------7---------------------|
|-----7-----0----0---------------6--5--3hb--0----(0)|
p.m .. .. ..

|---------------------------------------------------|
|---------------------------------------------------|
|-9-9----7-----9------------------------------------|
|-9-9----7-----9-----8--7--5------------------------|
|-7-7----5-----7--------------7---------------------|
|-----7-----0----0---------------6--5--3hb--0----(0)|
p.m .. .. ..
|---------------------------------------------------|
|---------------------------------------------------|
|-9-9----7-----9------------------------------------|
|-9-9----7-----9-----8--7--5----------------2----(2)|
|-7-7----5-----7--------------7-------------2----(2)|
|-----7-----0----0---------------6--5--3hb--0----(0)|
p.m .. .. ..

3.NIGHTRAIN

Intro:

|--------------3--3-2p0-------0----0--0-0--0---------------------------------|
|---------------------0--7\5--5----5--5-3--3\1-1-----/3--3\1--1-0-1-0--------|
|---2-----------------------------------------------------------------2--0-2-|
|---2------------------------------------------------------------------------|
|---0------------------------------------------------------------------------|
|----------------------------------------------------------------------------|
|
|---------------------------------------------1-----3------------------------|
|-------------8--8--7----7---5----5--5-3--3---1-----3---3-3---3-3-3----------|
|-------------9--9--7----7---5----5--5-4--4---2-----0---0-4---5-4-5--2--2-2--|
|---7---------7--7--7----7---5----5--5-5--5-3-----3/5---5-5---5-5-5--2--0-2--|
|---7-----0---------------------------------------------------------------0--|
|---5------------------------------------------------------------------------|


First verse:

-----------------------------------------------------------------------------------|
-----------------------------------------------------------------------------------|
---------2-------2-------2--2--------2---------2---2-----------------2------2----2-|
---------2-------2-------2--2--------2---------2---2-----------------2------2----2-|
---------0-------0-------0--0--------0---------0---0-----------3b----0------0----0-|
-------------3------------------0-3-----------------------0-3----------0-3-----3---|

 



Тексты песен DM

Rambler's Top100

body {scrollbar-3dlight-color:black; scrollbar-arrow-color:#02221f; scrollbar-base-color:black; scrollbar-darkshadow-color:black; scrollbar-face-color:#8B4513; scrollbar-track-color:#02221f; scrollbar-shadow-color:black; scrollbar-highlight-color:black;}


Guns N' Roses 2008 © 2020Используются технологии uCoz