Меню сайта
////

Estranged7 Тип: басс табулатура


standard tuning

(0:25)
G|----------------------------------------------------------------------|
D|----------------------------------------------------------------------|
A|--------------------------------------2-2-0-2-2--2-2-0-2-2--2-2-0-2-2-|
E|-2-2-0-2-2--2-2-0-2-2--2-2-0-2-2--0-2---------------------------------|

G|----------------------------|
D|----------------------------|
A|----------------------------|
E|-2-2-0-2-2--2-2-0-2-2--0-2--|

(0:47)
G|----------------------------------------------------------------------|
D|----------------------------------------------------------------------|
A|--------------------------------------3-3-0-2-2--3-3-0-2-2--3-3-0-2-2-|
E|-3-3-0-2-2--3-3-0-2-2--3-3-0-2-2--0-2---------------------------------|

G|----------------------------------------------------------------------|
D|----------------------------------------------------------------------|
A|--------------------------------------3-3-0-2-2--3-3-0-2-2--3-3-0-2-2-|
E|-3-3-0-2-2--3-3-0-2-2--3-3-0-2-2--0-2---------------------------------|

dont have the part from (1:13) to (1:54)

(1:54)
|-------------|
|-------------|
|-3-3-0-2-2-0-|
|-------------|

|----------------------------------------------------------------------|
|----------------------------------------------------------------------|
|--------------------------------------3-3-0-2-2--3-3-0-2-2--3-3-0-2-2-|
|-3-3-0-2-2--3-3-0-2-2--3-3-0-2-2--0-2---------------------------------|

dont have other part from (2:15) to (3:08)

(3:08)
G|--------------------------------------|
D|--------------------------------------|
A|--------------------------------------|
E|-2-2-0-2-2--2-2-0-2-2--2-2-0-2-2--0-2-|

Piano part (3:45)
|-----------|-----------|-----------|-----------|-----------|
|-----------|-----------|-----------|-----------|-----------|
|-----------|--2~~~~~---|-----------|--2~~~~~---|--3-2-0-2--|
|--0~~~~~---|-----------|--3~~~~~---|-----------|-----------|

|-----------|-----------|-----------|-----------|
|-----------|-----------|-----------|-----------|
|-----------|--2~~~~~---|-----------|--2~~~~~---|
|--0~~~~~---|-----------|--3~~~~~---|-----------|




Тексты песен DM

Rambler's Top100

body {scrollbar-3dlight-color:black; scrollbar-arrow-color:#02221f; scrollbar-base-color:black; scrollbar-darkshadow-color:black; scrollbar-face-color:#8B4513; scrollbar-track-color:#02221f; scrollbar-shadow-color:black; scrollbar-highlight-color:black;}

 
 

Guns N' Roses 2008 © 2021Используются технологии uCoz