Меню сайта
////

Door To Hell Тип: басс табулатура


RIGHT NEXT DOOR TO HELL


gnfnrs
Bass Picked




F#||------------------------|-------------0-----0-----|------------------------|
C#||--2----2--2--2----2--2--|--2----2--2-----2-----2--|--2----2--2--2----2--2--|
G#||------------------------|-------------------------|------------------------|
D#||------------------------|-------------------------|------------------------|



-------------0-----0-----|------------------------|-------------0-----0-----|
--2----2--2-----2-----2--|--2----2--2--2----2--2--|--2----2--2-----2-----2--|
-------------------------|------------------------|-------------------------|
-------------------------|------------------------|-------------------------|



------------------------|-------------0-----0-----|-------4--9--7-----------|
--2----2--2--2----2--2--|--2----2--2-----2-----2--|--2----------------5-----|
------------------------|-------------------------|----------------7-----7--|
------------------------|-------------------------|-------------------------|



------------------------|-------4--9--7-----------|------------------------|
------------------------|--2----------------5-----|------------------------|
----------0-------0-----|----------------7-----7--|----------0-------0-----|
--5----3-------3-----3--|-------------------------|--5----3-------3-----3--|



-------4--9--7-----------|------------------------|-------4--9--7-----------|
--2----------------5-----|------------------------|--2----------------5-----|
----------------7-----7--|----------0-------0-----|----------------7-----7--|
-------------------------|--5----3-------3-----3--|-------------------------|



------------------------|-------4--9--7-----------|------------------------|
------------------------|--2----------------5-----|------------------------|
----------0-------0-----|----------------7-----7--|----------0-------0-----|
--5----3-------3-----3--|-------------------------|--5----3-------3-----3--|



-------4--9--7-----------|------------------------|-------4--9--7-----------|
--2----------------5-----|------------------------|--2----------------5-----|
----------------7-----7--|----------0-------0-----|----------------7-----7--|
-------------------------|--5----3-------3-----3--|-------------------------|



------------------------|-------4--9--7-----------|------------------------|
------------------------|--2----------------5-----|------------------------|
----------0-------0-----|----------------7-----7--|----------0-------0-----|
--5----3-------3-----3--|-------------------------|--5----3-------3-----3--|



-----------------------|----------------------|-----------------------|
--------------------0--|------0--0----0----0--|-----------------------|
--2--------2--2--3-----|----------------------|--2----2----2----2--0--|
-----------------------|----------------------|-----------------------|



---------------------|-----------------------|----------------------|
---------------------|--------------------0--|------0--0----0----0--|
------0---------0----|--2--------2--2--3-----|----------------------|
---------3-----------|-----------------------|----------------------|



-----------------------|---------------------|-----------------------|
-----------------------|---------------------|--------------------0--|
--2----2----2----2--0--|------0---------0----|--2--------2--2--3-----|
-----------------------|---------3-----------|-----------------------|



----------------------|-----------------------|---------------------|
------0--0----0----0--|-----------------------|---------------------|
----------------------|--2----2----2----2--0--|------0---------0----|
----------------------|-----------------------|---------3-----------|



-----------------------|----------------------|-----------------------|
--------------------0--|------0--0----0----0--|-----------------------|
--2--------2--2--3-----|----------------------|--2----2----2----2--0--|
-----------------------|----------------------|-----------------------|



---------------------|--------------------|--------------------|
---------------------|--0--------0--------|--------------------|
------0---------0----|--------------------|--0--------0--------|
---------3-----------|--------------------|--------------------|



--------------------|--------------------|--------------------|
--------------------|--------------------|--0--------0--------|
--------------------|--------------------|--------------------|
--0--------0--------|--2--------2--------|--------------------|



--------------------|--------------------|--------------------|
--------------------|--------------------|--------------------|
--0--------0--------|--------------------|--------------------|
--------------------|--0--------0--------|--2--------2--------|



--------------------|--------------------|--------------------|
--0--------0--------|--------------------|--------------------|
--------------------|--0--------0--------|--------------------|
--------------------|--------------------|--0--------0--------|



--------------------|--------------------|--------------------|
--------------------|--0--------0--------|--------------------|
--------------------|--------------------|--0--------0--------|
--2--------2--------|--------------------|--------------------|



--------------------|--------------------|-------4--9--7-----------|
--------------------|--------------------|--2----------------5-----|
--------------------|--------------------|----------------7-----7--|
--0--------0--------|--2--------2--------|-------------------------|



------------------------|-------4--9--7-----------|------------------------|
------------------------|--2----------------5-----|------------------------|
----------0-------0-----|----------------7-----7--|----------0-------0-----|
--5----3-------3-----3--|-------------------------|--5----3-------3-----3--|



-------4--9--7-----------|------------------------|-------4--9--7-----------|
--2----------------5-----|------------------------|--2----------------5-----|
----------------7-----7--|----------0-------0-----|----------------7-----7--|
-------------------------|--5----3-------3-----3--|-------------------------|



------------------------|-----------------------|----------------------|
------------------------|--------------------0--|------0--0----0----0--|
----------0-------0-----|--2--------2--2--3-----|----------------------|
--5----3-------3-----3--|-----------------------|----------------------|



-----------------------|---------------------|-----------------------|
-----------------------|---------------------|--------------------0--|
--2----2----2----2--0--|------0---------0----|--2--------2--2--3-----|
-----------------------|---------3-----------|-----------------------|



----------------------|-----------------------|---------------------|
------0--0----0----0--|-----------------------|---------------------|
----------------------|--2----2----2----2--0--|------0---------0----|
----------------------|-----------------------|---------3-----------|



-----------------------|----------------------|-----------------------|
--------------------0--|------0--0----0----0--|-----------------------|
--2--------2--2--3-----|----------------------|--2----2----2----2--0--|
-----------------------|----------------------|-----------------------|



---------------------|-----------------------|----------------------|
---------------------|--------------------0--|------0--0----0----0--|
------0---------0----|--2--------2--2--3-----|----------------------|
---------3-----------|-----------------------|----------------------|



-----------------------|---------------------|--------------------|
-----------------------|---------------------|--0--------0--------|
--2----2----2----2--0--|------0---------0----|--------------------|
-----------------------|---------3-----------|--------------------|



--------------------|--------------------|--------------------|
--------------------|--------------------|--------------------|
--0--------0--------|--------------------|--------------------|
--------------------|--0--------0--------|--2--------2--------|



--------------------|--------------------|--------------------|
--0--------0--------|--------------------|--------------------|
--------------------|--0--------0--------|--------------------|
--------------------|--------------------|--0--------0--------|



--------------------|--------------------|--------------------|
--------------------|--0--------0--------|--------------------|
--------------------|--------------------|--0--------0--------|
--2--------2--------|--------------------|--------------------|



--------------------|--------------------|--------------------|
--------------------|--------------------|--0--------0--------|
--------------------|--------------------|--------------------|
--0--------0--------|--2--------2--------|--------------------|



--------------------|--------------------|--------------------|
--------------------|--------------------|--------------------|
--0--------0--------|--------------------|--------------------|
--------------------|--0--------0--------|--2--------2--------|



-------------------|-------------------|---------------------|
-------------------|-------------------|---------------------|
-------------------|-------------------|---------------------|
--2----------------|--2----------------|--2------3----4------|



-------------------|-------------------|-------------------|-------------------|
-------------------|-------------------|-------------------|-------------------|
-------------------|-------------------|-------------------|-------------------|
--0----------------|--0----------------|--0----------------|--0----------------|



------------------|------------------|------------------|------------------|
------------------|------------------|------------------|------------------|
------------------|------------------|------------------|------------------|
------------------|------------------|------------------|------------------|



-------------------|-------------------|-------------------|-------------------|
--2----------------|--2----------------|--2----------------|--2----------------|
-------------------|-------------------|-------------------|-------------------|
-------------------|-------------------|-------------------|-------------------|



-------------------|-------------------|-------------------|-------------------|
-------------------|-------------------|-------------------|-------------------|
--4----------------|--4----------------|--4----------------|--4----------------|
-------------------|-------------------|-------------------|-------------------|



--------------------|--------------------|--------------------|
--------------------|--------------------|--------------------|
--4--2--------------|--2--0--------------|--0-----------------|
--------------------|--------------------|-----4--------------|



----------------------|-------------------|-------------------|
----------------------|-------------------|-------------------|
-----------------0----|--2----------------|--2----------------|
--3--2------4---------|-------------------|-------------------|



-------4--9--7-----------|------------------------|-------4--9--7-----------|
--2----------------5-----|------------------------|--2----------------5-----|
----------------7-----7--|----------0-------0-----|----------------7-----7--|
-------------------------|--5----3-------3-----3--|-------------------------|



------------------------|-------4--9--7-----------|------------------------|
------------------------|--2----------------5-----|------------------------|
----------0-------0-----|----------------7-----7--|----------0-------0-----|
--5----3-------3-----3--|-------------------------|--5----3-------3-----3--|



-------4--9--7-----------|------------------------|---------------------|
--2----------------5-----|------------------------|--2------3------4----|
----------------7-----7--|----------0-------0-----|---------------------|
-------------------------|--5----3-------3-----3--|---------------------|



--------------------|--0----------------|--2----------------|
----3------4--------|-------------------|-------------------|
--------------------|-------------------|-------------------|
--------------------|-------------------|-------------------|



-------------------|-------------------|--0----------------|--2----------------|
--2----------------|--2----------------|-------------------|-------------------|
-------------------|-------------------|-------------------|-------------------|
-------------------|-------------------|-------------------|-------------------|



-------------------|-------------------|--0----------------|--2----------------|
--2----------------|--2----------------|-------------------|-------------------|
-------------------|-------------------|-------------------|-------------------|
-------------------|-------------------|-------------------|-------------------|



-------------------|-------------------|--0----------------|--2----------------|
--2----------------|--2----------------|-------------------|-------------------|
-------------------|-------------------|-------------------|-------------------|
-------------------|-------------------|-------------------|-------------------|



-------------------|-------------------|------------------||
--2----------------|--2----------------|------------------||
-------------------|-------------------|------------------||
-------------------|-------------------|------------------||




Тексты песен DM

Rambler's Top100

body {scrollbar-3dlight-color:black; scrollbar-arrow-color:#02221f; scrollbar-base-color:black; scrollbar-darkshadow-color:black; scrollbar-face-color:#8B4513; scrollbar-track-color:#02221f; scrollbar-shadow-color:black; scrollbar-highlight-color:black;}

 
 

Guns N' Roses 2008 © 2020Используются технологии uCoz