Меню сайта
////

Dont Damn Me Тип: табулатура


Don't Damn Me
Written by SLASH, Axl Rose, Izzy Stradlin, and Dave Lank
Originally Recorded by
Guns N'Roses


intro:
|-------------------------------------------------------------------------|
|-------------------------------------------------------------------------|
|-------------------------------------------------------------------------|
|----11-11---------------9--9-------------------2------64----9---11------|
|----9--9---7-----9---6--7--7---------7-7--4----0---0--42----7---9-------|
|--0----------9-9---9-----------9-7-7-5-5--2--4-------------0-------------|
verse: repeat the intro a certain amount times
|---------------------------------------------------------------------------|
|---------------------------------------------------------------------------|
|---------------------------------------------------------------------------|
|------64-----------------------------------2------64--------3/4------x-4-|
|---0--42--2-2-2-4------6-------4-----------0---0--42---2-2---------------|
|-----------0-0-0-2---2------2-------2---4----------------0-0---------------|
bridge: (I know you don't wanna here me crying...)D5 A5 E5 E
solo:
|--------------------------------------------------------------------------|
|--------------------------------------------------------------------------|
|--11-9-----11--------9----------------------------------------------------|
|--------11----10-11----11-10-9-7-9-9p7-9p7------------7-------7-----------|
|--------------------------------------------9-7-9---9----9----7---9-7--9--|
|------------------------------------------------------------5----------9--|
|--------------------------------------------------------------------------|
|--------------------------------------------------------------------------|
|--------------------------------------------------------------------6-----|
|--------------------------------------------------------6h7p6---6-7-------|
|--7-------------------------------------7h9p7h9--6h7h9--------9-----------|
|----9-8-7b--p5--7-5-5h7-5-5--7--5h7-9-9-----------------------------------|
|--------------------------------------------------------------------------|
|-------------------------------------9h10p9-----9h10-x-14-17-14----17-----|
|-----------------8h9p8-------9--9h11---------11-----------------16----16--|
|--7h9p76-7v--11--------9-11----------------------------------------------|
|--------------------------------------------------------------------------|
|--------------------------------------------------------------------------|
|--------------------------------------------------------------------------|
|-------------------------------------9h10p9-----9h10-x-14-17-14----17-----|
|-----------------8h9p8-------9--9h11---------11-----------------16----16--|
|--7h9p76-7v--11--------9-11----------------------------------------------|
|--------------------------------------------------------------------------|
|--------------------------------------------------------------------------|
|---------------------------------------------------14---------------------|
|--14h17p14--14-------------------------17b---17b------17-14--17--14-------|
|----------------17-16-14-----16----14-------------------------------------|
|--------------------------16----16----------------------------------------|
|--------------------------------------------------------------------------|
|--------------------------------------------------------------------------|
|----------------------------14------------------------------------------17-|
|--14-15-14h15p14----14---------17-14-----14--------------------------------|
|-----------------16----16b-----------16b----16p14----16--14h16p1413--0----|
|--------------------------------------------------16-----------------------|
|---------------------------------------------------------------------------|
|---------------------------------------------------------------------------|
|-17v----14-17-16--(16)h17p16p14-17-16--14-17-16--14-17-16--14-17-16--17p16-|
|---------------------------------------------------------------------------|
|---------------------------------------------------------------------------|
|---------------------------------------------------------------------------|
|---------------------------------------------------------------------------|
|---------------------------------------------------------------------------|
|--17p16--14h16p1413--14--------------------------------------------------|
|-------------------------17--15h17--17p15--17p15p14--15--14h15p1413------|
|--------------------------------------------------------------------------|
|--------------------------------------------------------------------------|
|--------------------------------------------------------------------------|
|--------------------------------------------------------------------------|
|--------------------19b--19b--16--19--17--19--16h17p16----16--------------|
|--14-1312h13p12---------------------------------------19----19--17--19---|
|-----------------14-------------------------------------------------------|
|--------------------------------------------------------------------------|
|--------------------------------------------------------------------------|
|--------------------------------------------------------------------------|
|-------------14-----------------------14----------------------------------|
|--19p0--17b------17-14-----------17b-----17--16--15--14--------14---------|
|------------------------16b--14-------------------------17--16------------|
|--------------------------------------------------------------------------|
|--------------------------------------------------------------------------|
|--------------------------------------------------------------------------|
|--------------------------------------------------------------------------|
|--------------------------------------------------------------------------|
|----17--16--14--13--14--13h14p13-----13-----------------------------------|
|----------------------------------16----16--------------------------------|
|--------------------------------------------16--16--15--14--14b--12-14----|
|--------------------------------------------------------------------------|
|--------------------------------------------------------------------------|
|--------------------14----------------------------------------------------|
|----------------14--14----------------------------------------------------|
|----------------14--16----------It ain't long, just fast------------------|
|-----12/14---16-----------------------------------------------------------|
|--14----------------------------------------------------------------------|


Тексты песен DM

Rambler's Top100

body {scrollbar-3dlight-color:black; scrollbar-arrow-color:#02221f; scrollbar-base-color:black; scrollbar-darkshadow-color:black; scrollbar-face-color:#8B4513; scrollbar-track-color:#02221f; scrollbar-shadow-color:black; scrollbar-highlight-color:black;}


Guns N' Roses 2008 © 2019Используются технологии uCoz