Меню сайта
////

Dont Cry bass Тип: басс табулатура


Tune half step down:

Intro:

|------------------------------------------------------------|
|------------------------------------------------------------|
|--------5---------3--2--3--2----------5---------------------|
|---5---------3-------------------5---------3----2--3--4--5--|



Verse 1 & 2:

|------------------------------------------------------------|
|------------------------------------------------------------|
|--------5---------3--2--3--2----------5---------3--2--3--2--|
|---5---------3-------------------5---------3----------------|



|------------------------------------------------------------|
|------------------------------------------------------------|
|--------5---------3--2--3--2----------5---------3--2--3--2--|
|---5---------3-------------------5---------3----------------|



Pre chorus: (there is no pre chorus after third verse)

|------------|
|------------|
|------------|
|---5--3--1--|



Chorus:

|------------------------------------------------------------|
|------------------------------------------------------------|
|---------------------3--2-----------------------------------|
|--1----1--1--3----3--------5----5----5----5----5--5--5--5---|



|------------------------------------------------------------|
|------------------------------------------------------------|
|------------------------------------------------------------|
|--1----1--1--3--3--3--3-----3--4--5----5----5----5--5--5--5-|



|------------------------------------------------------------|
|------------------------------------------------------------|
|----------------------------3---2---------------------------|
|--1----1--1--3--3--3--3-------------5----3----3----3----3---|



|------------------------------------------------------------|
|------------------------------------------------------------|
|------------------------------------------------------------|
|--1----1--1--3--3--3--3-----3-----5----5----5----5--5--5--5-|



Over Solo: D F G A G F G A G F G E F G



Verse 3:

|------------------------------------------------------------|
|------------------------------------------------------------|
|--------5---------3--2--3--2----------5---------3--2--3--2--|
|---5---------3-------------------5---------3----------------|



|------------------------------------------------------------|
|------------------------------------------------------------|
|--------5---------3--2--3--2----------5---------3--2--------|
|---5---------3-------------------5---------3----------5--3--|



Last chorus & final:

F G A

F G A

F G C B A G

F G F G F G F E F G F G F G C



--------------------------------------------------------------



--------------------------------------------------------------

Another Bass Version:



|------------| ----------------|----------------|----------------|
|------------|*----------------|----------------|----------------|
|------------|*----------------|5---------------|----------------|
|------------| 5---------------|----------------|3---------------|



|----------------4x|----------------|----------------|----------------|
|----------------*||----------------|----------------|----------------|
|3-----2-----3-2-*||----------------|----------------|----------------|
|---------------- ||1---------------|3---------------|5---------------|



|----------------2x|----------------|----------------|----------------|
|----------------*||----------------|----------------|----------------|
|----------------*||----------------|----------------|3-------2-------|
|5-------5-5-5-5- ||1---------------|3---------------|----------------|



|----------------|----------------|----------------|----------------|
|----------------|----------------|----------------|----------------|
|----------------|----------------|----------------|----------------|
|5-------3-------|5---------------|3---------------|5---------------|





--------------------------------------------------------------------

Another Bass Version:









|-------------------|
|-------------------|
|-3-2-320--5--------|
|------------3-2345-|



|-------------|
|-------------| (repeat 3x)
|-0-5---3-2-32|
|-----3-------|



|-------------|
|-------------|
|-0-5---3-2---|
|-----3-----1-|



|------------------|
|------------------| (repeat 2x)
|------------------|
|-1-3--3-5-555-3-1-|



|--------------------------|
|--------------------------|
|-------3-2-0--------------|
|-1-3---------3-1--1-3-1-5-|



|-------------|
|-------------| (repeat 3x)
|-0-5---3-2-32|
|-----3-------|



|---------------|
|---------------|
|-0-5---3-2-----|
|-----3-----1-1-|



|-------------------|
|-------------------| (repeat 2x)
|-------------------|
|-1-3--3-5--555-3-1-|



|---------------------------|
|---------------------------|
|-------3-2-0---------------|
|-1-3---------3-1--1-3--3-5-|



|----------------------------------------|
|----------------------------------------|
|-5--5-----------------------------------|
|------1--1-3--3-5-3-1--1-3-3-5--555-3-1-|



|----------------------------------|
|----------------------------------|
|----------------------------------|
|-1-3--3-000000001111-1-1--1-3--3-5|



|-------------------|
|-------------------| (repeat 3x)
|-5---------3-2-320-|
|----0-1-3----------|



|---------------------|
|---------------------|
|-5---------3-2-0-----|
|----0-1-3--------3-1-|



|------------------|
|------------------| (repeat 2x)
|------------------|
|-1-3--3-5-555-3-1-|



|-----------------|
|-----------------|
|-------3-2-0-----|
|-1-3---------3-1-|



|-------------------------|
|-------------------------|
|-------------------------|
|-1-3--3-1--1-3--3-1--1-3-|



|------------------|
|------------------|
|------------------|
|-000000001111-1-1-|



|-------------------------|
|-------------------------|
|-------------------------|
|-1-3--3-1--1-3--3-1--1-3-|



|---|
|---|
|-3-|
|---|



Тексты песен DM

Rambler's Top100

body {scrollbar-3dlight-color:black; scrollbar-arrow-color:#02221f; scrollbar-base-color:black; scrollbar-darkshadow-color:black; scrollbar-face-color:#8B4513; scrollbar-track-color:#02221f; scrollbar-shadow-color:black; scrollbar-highlight-color:black;}


Guns N' Roses 2008 © 2020Используются технологии uCoz