Меню сайта
////

Dont Cry Тип: басс табулатура


Here's a tab for you - more soon.

Rob.
Guns N' Roses - Don't Cry
Use Your Illusion I+II

Tabbed by Robert Hull


/ = Slide
~ = Let ring

Tune down 1/2 step


Intro
Gb|---------------------------------
Db|---------------------------------
Ab|---3----2-3-2------5-------------
Eb|---------------5-------3--2-3-4-5


Fill Verse
Gb|-----|---------------------------
Db|-----|---------------------------
Ab|-----|---5---------3----2-3-2----
Eb|--5--|--------3----------------5-


Bridge 1
Gb|------------------------
Db|------------------------
Ab|---5---------3-3-2-2----
Eb|--------3------------1--


Chorus
Gb|----------------------------------
Db|----------------------------------
Ab|-----------------3-2--------------
Eb|--1--1--1-/-3--3-----5--5--5--5--5

Gb|----------------------------------
Db|----------------------------------
Ab|----------------------------------
Eb|--1--1--1-/-3--3--3-/-505--5--5--5

Gb|----------------------------------
Db|----------------------------------
Ab|----------------------------------
Eb|--1--1--1-/-3--3--3-/-5~----------


Bridge 2
Gb|------------------------------
Db|------------------------------
Ab|---5---------3-3-2-2----------
Eb|--------3------------5-5--3-3-


Solo
Gb|-------------------------------------
Db|-------------------------------------
Ab|--5--5-5-5---------------------------
Eb|-----------1-1-1-1--3-3-3-3--5-5--3-3

Gb|-------------------------------------
Db|-------------------------------------
Ab|-------------------------------------
Eb|--1--1-1-1--3--3-3-3--5-505-5-5-5-5--

Gb|-------------------------------------
Db|-------------------------------------
Ab|-------------------------------------
Eb|--1--1-1-1--3--3-3-3--0--0--0--0-----

Gb|-------------------------------------
Db|-------------------------------------
Ab|-------------------------------------
Eb|--1--1---3--3---1--1--1--1--3--3--5~-


Outro 1
Gb|----------------------------------
Db|----------------------------------
Ab|-----------------3-2--------------
Eb|--1--1--1-/-3--3-----5--5--5--5--5

Gb|----------------------------------
Db|----------------------------------
Ab|----------------------------------
Eb|--1--1--1-/-3--3--3-/-505--5--5--5

Gb|----------------------------------
Db|----------------------------------
Ab|----------------------------------
Eb|--1--1--1-/-3--3--3-/-505--5--5--5

Gb|----------------------------------
Db|----------------------------------
Ab|------------3-3-2-2---------------
Eb|--3-3-3-3------------5-5--3-3-----


Outro 2
Gb|---------------------------------------
Db|---------------------------------------
Ab|---------------------------------------
Eb|-1--1-1-1--3--3-3-3--1--1-1-1--3--3-3-3


Outro 3
Gb|----------------------
Db|----------------------
Ab|----------------------
Eb|--1--1-1-1--0--0-0-0--


Finish
Gb|-----
Db|-----
Ab|--3--
Eb|-----


Structure: Intro (after guitar intro)
Fill
Verse x 3
Bridge 1
Chorus
Fill
Verse x 3
Bridge 2
Chorus
Solo
Fill
Verse x 3
Chorus
Outro 1 x 3
Outro 2
Outro 1 x 3
Finish

That's it! Any questions or comments then e-mail me.

=============================================
Замена и ремонт актуатора. антикварные книги


Тексты песен DM

Rambler's Top100

body {scrollbar-3dlight-color:black; scrollbar-arrow-color:#02221f; scrollbar-base-color:black; scrollbar-darkshadow-color:black; scrollbar-face-color:#8B4513; scrollbar-track-color:#02221f; scrollbar-shadow-color:black; scrollbar-highlight-color:black;}


Guns N' Roses 2008 © 2018Используются технологии uCoz