Меню сайта
////

Better Тип: табулатура


Guns N'Roses - Better

Drop-D tuning, tuned down 1/2 step - i.e.

From chinese democracy forums, by Bolt.

d# a# f# c# g# c#


Intro

--15-17-15-17-15-17-15--17-18-17-15--------|
-------------------------------------------|
-------------------------------------------|
-------------------------------------------|
-------------------------------------------|
-------------------------------------------|


--17-15-13--15-13--15-13--15-13-12-13---------13--15-|
----------------------------------------------15--17-|
-----------------------------------------------------|
-----------------------------------------------------|
-----------------------------------------------------|
-----------------------------------------------------|


main riff

------------------------------------------|
------------------------------------------|
-3-3-3-3---3-3-3---3---3-3-3---3----------|
-3-3-3-3---3-3-3---3---3-3-3---3----------|
-1-1-1-1---1-1-1---1---1-1-1---1----------|
------------------------------------------|

------------------------------------------|
------------------------------------------|
-7-7-7-7---7-7-7---10---10-7-7---7--------|
-7-7-7-7---7-7-7---10---10-7-7---7--------|
-5-5-5-5---5-5-5---8----8--5-5---5--------|
-0-0-0-0---0-0-0---0----0--0-0---0--------|


pre-chorus

----------------------------------|
----------------------------------|
-3-3-3--------7-7-7---------------|
-3-3-3--------7-7-7---------------|
-1-0-1--------5-3-5---------------|
----------------------------------|
not actually what is played, but in harmony
rhythm actually plays a single A and then C# chord

chorus

----------------------------------|
----------------------------------|
----------------------------------|
-3--------3------5---3--5---3-----|
--5-------------------------------|
--------x------x------------------|
first 2 notes are swept

-----------------------------------------------|
-----------------------------------------------|
-------------bu--------------------------------|
---------3----5----3--5---3--5--3--------------|
--5--------------------------------------------|
-----------------------------------------------|


--------------------------------------------------------|
--------------------------------------h-----------------|
--------------sl----------h----10--10(12)-10------h-----|
-----h----5--7/10--10--10(12)------------------10(12)---|
--/5(8)-------------------------------------------------|
--------------------------------------------------------|

---------------------------------------|
---------------------------------------|
-3-3-3-3------3-3-5-5-5-5------7-------|
-3-3-3-3------3-3-5-5-5-5------7-------|
-1-1-1-1------1-1-3-3-3-3------5-------|
---------------------------------------|


Bridge

palm muted riff
---------------------------------------------|
---------------------------------------------|
---------------------------------------------|
---------------------------------------------|
---------------------------------------------|
-5-0-0-3-0-0-5-0---3-0-0-4-0-0-5-0-----------|
this bit might not be correct


волховец двери петербург

riff 2 of bridge

--------------------------------------------------------------|
--------------------------------------------------------------|
--------------------------------------------------------------|
------5-3--------5-3-------5-3--------------------------------|
---------------------------------------------------------3--5-|
-0-0---------0-0-------0-0-------0-0-x-x----0-3-3-------------|


riff 3 of bridge
 



Тексты песен DM

Rambler's Top100

body {scrollbar-3dlight-color:black; scrollbar-arrow-color:#02221f; scrollbar-base-color:black; scrollbar-darkshadow-color:black; scrollbar-face-color:#8B4513; scrollbar-track-color:#02221f; scrollbar-shadow-color:black; scrollbar-highlight-color:black;}

 
 

Guns N' Roses 2008 © 2021Используются технологии uCoz