Меню сайта
////

Aint It Fun1 Тип: басс табулатура


Ain't It Fun


Guns N' Roses
DUFF




G||------------------|------------------|------------------|-------------------|
D||------------------|------------------|------------------|----------------4--|
A||------------------|------------------|------------------|-------------------|
E||------------------|------------------|------------------|-------------------|



-------------------|------------------|------------------|--------------------|
-------------------|------------------|------------------|-----------------4--|
--2----------------|------------------|------------------|--2-----------------|
-------------------|------------------|------------------|--------------------|



-----------------------|-----------------------|-----------------------|
-----------------------|-----------------------|-----------------------|
--2------2--2----2--2--|--5------5--0----0--0--|-----------------------|
-----------------------|-----------------------|--3------3--3----3--3--|



-----------------------|-----------------------|-----------------------|
-----------------------|-----------------------|-----------------------|
--2------2--2----2--2--|--2------2--2----2--2--|--5------5--0----0--0--|
-----------------------|-----------------------|-----------------------|



-----------------------|-----------------------|-----------------------|
-----------------------|-----------------------|-----------------------|
-----------------------|--2------2--2----2--2--|--2------2--2----2--2--|
--3------3--3----3--3--|-----------------------|-----------------------|



-----------------------|-----------------------|-----------------------|
-----------------------|-----------------------|-----------------------|
--5------5--0----0--0--|-----------------------|--2------2--2----2--2--|
-----------------------|--3------3--3----3--3--|-----------------------|



-----------------------|-----------------------|-----------------------|
-----------------------|-----------------------|-----------------------|
--5------5--0----0--0--|--2------2-------------|--5------5--0----0--0--|
-----------------------|------------3----3--3--|-----------------------|



-----------------------|-----------------------|-----------------------|
-----------------------|-----------------------|-----------------------|
--2------2--2----2--2--|--5------5--0----0--0--|--2------2-------------|
-----------------------|-----------------------|------------3----3--3--|



-----------------------|-----------------------|-----------------------|
-----------------------|-----------------------|-----------------------|
--5------5--0----0--0--|--2------2--2----2--2--|--2------2--2----2--2--|
-----------------------|-----------------------|-----------------------|



-----------------------|-----------------------|-----------------------|
-----------------------|-----------------------|-----------------------|
--5------5--0----0--0--|-----------------------|--2------2--2----2--2--|
-----------------------|--3------3--3----3--3--|-----------------------|



-----------------------|-----------------------|-----------------------|
-----------------------|-----------------------|-----------------------|
--2------2--2----2--2--|--5------5--0----0--0--|--2------2--2----2--2--|
-----------------------|-----------------------|-----------------------|



-----------------------|-----------------------|-----------------------|
-----------------------|-----------------------|-----------------------|
--2------2--2----2--2--|-----------------------|--2------2--2----2--2--|
-----------------------|--3------3--3----3--3--|-----------------------|



-----------------------|-----------------------|-----------------------|
-----------------------|-----------------------|-----------------------|
-----------------------|--2------2--2----2--2--|--5------5--0----0--0--|
--3------3--3----3--3--|-----------------------|-----------------------|



-----------------------|-----------------------|--------------------------|
-----------------------|-----------------------|--------------------------|
--2------2-------------|--5------5--0----0--0--|--2--2--2--2--2--2--2--2--|
------------3----3--3--|-----------------------|--------------------------|



--------------------------|-------------------------|-------------------------|
--------------------------|-------------------------|-------------------------|
--2--2--2--2--2--1--0-----|-------------------------|--0--0--0--0----0--0--0--|
-----------------------4--|--3--3--3--3----3--3--3--|-------------------------|



-------------------------|-------------------------|-------------------------|
-------------------------|-------------------------|-------------------------|
--2--2--2--2----2--2--2--|--2--2--2--2----2--2--2--|-------------------------|
-------------------------|-------------------------|--3--3--3--3----3--3--3--|



-------------------------|-------------------------|-------------------------|
-------------------------|-------------------------|-------------------------|
--0--0--0--0----0--0--0--|--2--2--2--2----2--2--2--|--2--2--2--2----2--2--2--|
-------------------------|-------------------------|-------------------------|



-------------------------|-------------------------|--------------------|
-------------------------|-------------------------|-----------------4--|
-------------------------|--0--0--0--0----0--0--0--|--2-----------------|
--3--3--3--3----3--3--3--|-------------------------|--------------------|



-----------------------|-----------------------|-----------------------|
-----------------------|-----------------------|-----------------------|
--5------5--0----0--0--|-----------------------|--2------2--2----2--2--|
-----------------------|--3------3--3----3--3--|-----------------------|



--------------------|-----------------------|-----------------------|
-----------------4--|-----------------------|-----------------------|
--2-----------------|--5------5--0----0--0--|-----------------------|
--------------------|-----------------------|--3------3--3----3--3--|



-----------------------|-----------------------|-----------------------|
-----------------------|-----------------------|-----------------------|
--2------2--2----2--2--|--2------2--2----2--2--|--5------5--5----5--5--|
-----------------------|-----------------------|-----------------------|



-----------------------|-----------------------|-----------------------|
-----------------------|-----------------------|-----------------------|
-----------------------|--2------2--2----2--2--|-----------------------|
--3------3--3----3--3--|-----------------------|--3------3--3----3--3--|



-----------------------|-----------------------|-----------------------|
-----------------------|-----------------------|-----------------------|
--2------2--2----2--2--|-----------------------|--2------2--2----2--2--|
-----------------------|--3------3--3----3--3--|-----------------------|



-----------------------|-----------------------|-----------------------|
-----------------------|-----------------------|-----------------------|
--5------5--0----0--0--|--2------2-------------|--5------5--0----0--0--|
-----------------------|------------3----3--3--|-----------------------|



--------------------------|--------------------------|
--------------------------|--------------------------|
--2--2--2--2--2--2--2--2--|--2--2--2--2--2--1--0-----|
--------------------------|-----------------------4--|



--------------------------|--------------------------|
--------------------------|--------------------------|
--------------------------|--0--0--0--0--0--0--0--0--|
--3--3--3--3--3--3--3--3--|--------------------------|



--------------------------|--------------------------|
--------------------------|--------------------------|
--5--5--5--5--5--5--5--5--|--2--2--2--2--2--2--2--2--|
--------------------------|--------------------------|



--------------------------|--------------------------|
--------------------------|--------------------------|
--------------------------|--0--0--0--0--0--0--0--0--|
--3--3--3--3--3--3--3--3--|--------------------------|



--------------------------|--------------------------|
--------------------------|--------------------------|
--5--5--5--5--5--5--5--5--|--2--2--2--2--2--2--2--2--|
--------------------------|--------------------------|



|--------------------------|-------------------------|-------------------------|
|*-------------------------|-------------------------|-------------------------|
|*-------------------------|--0--0--0--0----0--0--0--|--2--2--2--2----2--2--2--|
|---3--3--3--3----3--3--3--|-------------------------|-------------------------|


2x
--------------------------||-------------------------|-------------------------|
-------------------------*||-------------------------|-------------------------|
--2--2--2--2----2--2--2--*||-------------------------|--0--0--0--0----0--0--0--|
--------------------------||--3--3--3--3----3--3--3--|-------------------------|



-------------------------|-------------------------|-----------------------|
-------------------------|-------------------------|-----------------------|
--2--2--2--2----2--2--2--|--2--2--2--2----2--2--2--|--2------2--2----2--2--|
-------------------------|-------------------------|-----------------------|



-----------------------|-----------------------|-----------------------|
-----------------------|-----------------------|-----------------------|
--5------5--0----0--0--|-----------------------|--2------2--2----2--2--|
-----------------------|--3------3--3----3--3--|-----------------------|



-----------------------|-----------------------|-----------------------|
-----------------------|-----------------------|-----------------------|
--2------2--2----2--2--|--5------5--0----0--0--|-----------------------|
-----------------------|-----------------------|--3------3--3----3--3--|



-----------------------|-----------------------|-----------------------|
-----------------------|-----------------------|-----------------------|
--2------2--2----2--2--|--2------2--2----2--2--|--5------5--0----0--0--|
-----------------------|-----------------------|-----------------------|



-----------------------|-----------------------|-----------------------|
-----------------------|-----------------------|-----------------------|
-----------------------|--2------2--2----2--2--|--2------2--2----2--2--|
--3------3--3----3--3--|-----------------------|-----------------------|



-----------------------|-----------------------|-----------------------|
-----------------------|-----------------------|-----------------------|
--5------5--0----0--0--|--2------2--2----2--2--|--2------2--2----2--2--|
-----------------------|-----------------------|-----------------------|



-----------------------|-----------------------|-----------------------|
-----------------------|-----------------------|-----------------------|
-----------------------|--2------2--2----2--2--|-----------------------|
--3------3--3----3--3--|-----------------------|--3------3--3----3--3--|



-----------------------|-----------------------|-----------------------|
-----------------------|-----------------------|-----------------------|
--2------2--2----2--2--|--5------5--0----0--0--|--2------2-------------|
-----------------------|-----------------------|------------3----3--3--|



-----------------------|--------------------------|--------------------------|
-----------------------|--------------------------|--------------------------|
--5------5--0----0--0--|--2--2--2--2--2--2--2--2--|--2--2--2--2--2--1--0-----|
-----------------------|--------------------------|-----------------------4--|



|--------------------------|-------------------------|-------------------------|
|*-------------------------|-------------------------|-------------------------|
|*-------------------------|--0--0--0--0----0--0--0--|--2--2--2--2----2--2--2--|
|---3--3--3--3----3--3--3--|-------------------------|-------------------------|


4x
--------------------------||-------------------------|-------------------------|
-------------------------*||-------------------------|-------------------------|
--2--2--2--2----2--2--2--*||-------------------------|--0--0--0--0----0--0--0--|
--------------------------||--3--3--3--3----3--3--3--|-------------------------|



--------------------|--------------------|--------------------||
--------------------|--------------------|--------------------||
--2--------------2--|--2--------------2--|--5-----------------||
--------------------|--------------------|-------7------------||



Тексты песен DM

Rambler's Top100

body {scrollbar-3dlight-color:black; scrollbar-arrow-color:#02221f; scrollbar-base-color:black; scrollbar-darkshadow-color:black; scrollbar-face-color:#8B4513; scrollbar-track-color:#02221f; scrollbar-shadow-color:black; scrollbar-highlight-color:black;}


Guns N' Roses 2008 © 2020Используются технологии uCoz